  0
SECTION
  2
HEADER
  9
$ACADVER
  1
AC1015
  9
$ACADMAINTVER
 70
     6
  9
$DWGCODEPAGE
  3
ANSI_1254
  9
$INSBASE
 10
0.0
 20
0.0
 30
0.0
  9
$EXTMIN
 10
0.0
 20
0.0
 30
0.0
  9
$EXTMAX
 10
279.4
 20
215.9
 30
0.0
  9
$LIMMIN
 10
0.0
 20
0.0
  9
$LIMMAX
 10
279.4
 20
215.9
  9
$ORTHOMODE
 70
     0
  9
$REGENMODE
 70
     1
  9
$FILLMODE
 70
     1
  9
$QTEXTMODE
 70
     0
  9
$MIRRTEXT
 70
     1
  9
$LTSCALE
 40
1.0
  9
$ATTMODE
 70
     1
  9
$TEXTSIZE
 40
3.5
  9
$TRACEWID
 40
1.0
  9
$TEXTSTYLE
  7
Standard
  9
$CLAYER
  8
0
  9
$CELTYPE
  6
ByLayer
  9
$CECOLOR
 62
   256
  9
$CELTSCALE
 40
1.0
  9
$DISPSILH
 70
     0
  9
$DIMSCALE
 40
1.0
  9
$DIMASZ
 40
3.5
  9
$DIMEXO
 40
1.0
  9
$DIMDLI
 40
3.75
  9
$DIMRND
 40
0.0
  9
$DIMDLE
 40
0.0
  9
$DIMEXE
 40
1.0
  9
$DIMTP
 40
0.0
  9
$DIMTM
 40
0.0
  9
$DIMTXT
 40
3.5
  9
$DIMCEN
 40
2.5
  9
$DIMTSZ
 40
0.0
  9
$DIMTOL
 70
     0
  9
$DIMLIM
 70
     0
  9
$DIMTIH
 70
     1
  9
$DIMTOH
 70
     1
  9
$DIMSE1
 70
     0
  9
$DIMSE2
 70
     0
  9
$DIMTAD
 70
     1
  9
$DIMZIN
 70
     0
  9
$DIMBLK
  1

  9
$DIMASO
 70
     1
  9
$DIMSHO
 70
     1
  9
$DIMPOST
  1

  9
$DIMAPOST
  1

  9
$DIMALT
 70
     0
  9
$DIMALTD
 70
     3
  9
$DIMALTF
 40
0.0393700787
  9
$DIMLFAC
 40
1.0
  9
$DIMTOFL
 70
     1
  9
$DIMTVP
 40
0.0
  9
$DIMTIX
 70
     0
  9
$DIMSOXD
 70
     0
  9
$DIMSAH
 70
     0
  9
$DIMBLK1
  1

  9
$DIMBLK2
  1

  9
$DIMSTYLE
  2
ISO-25
  9
$DIMCLRD
 70
     0
  9
$DIMCLRE
 70
     0
  9
$DIMCLRT
 70
     0
  9
$DIMTFAC
 40
1.0
  9
$DIMGAP
 40
1.524
  9
$DIMJUST
 70
     0
  9
$DIMSD1
 70
     0
  9
$DIMSD2
 70
     0
  9
$DIMTOLJ
 70
     0
  9
$DIMTZIN
 70
     0
  9
$DIMALTZ
 70
     0
  9
$DIMALTTZ
 70
     0
  9
$DIMUPT
 70
     0
  9
$DIMDEC
 70
     2
  9
$DIMTDEC
 70
     2
  9
$DIMALTU
 70
     2
  9
$DIMALTTD
 70
     3
  9
$DIMTXSTY
  7
Standard
  9
$DIMAUNIT
 70
     0
  9
$DIMADEC
 70
     2
  9
$DIMALTRND
 40
0.0
  9
$DIMAZIN
 70
     0
  9
$DIMDSEP
 70
    44
  9
$DIMATFIT
 70
     3
  9
$DIMFRAC
 70
     0
  9
$DIMLDRBLK
  1

  9
$DIMLUNIT
 70
     2
  9
$DIMLWD
 70
    -2
  9
$DIMLWE
 70
    -2
  9
$DIMTMOVE
 70
     0
  9
$LUNITS
 70
     2
  9
$LUPREC
 70
     2
  9
$SKETCHINC
 40
1.0
  9
$FILLETRAD
 40
10.0
  9
$AUNITS
 70
     0
  9
$AUPREC
 70
     2
  9
$MENU
  1
.
  9
$ELEVATION
 40
0.0
  9
$PELEVATION
 40
0.0
  9
$THICKNESS
 40
0.0
  9
$LIMCHECK
 70
     0
  9
$CHAMFERA
 40
0.0
  9
$CHAMFERB
 40
0.0
  9
$CHAMFERC
 40
0.0
  9
$CHAMFERD
 40
0.0
  9
$SKPOLY
 70
     0
  9
$TDCREATE
 40
2458985.721411574
  9
$TDUCREATE
 40
2458985.596411574
  9
$TDUPDATE
 40
2458985.721411829
  9
$TDUUPDATE
 40
2458985.596411829
  9
$TDINDWG
 40
0.0000000116
  9
$TDUSRTIMER
 40
0.0000000116
  9
$USRTIMER
 70
     1
  9
$ANGBASE
 50
0.0
  9
$ANGDIR
 70
     0
  9
$PDMODE
 70
     0
  9
$PDSIZE
 40
-1.0
  9
$PLINEWID
 40
0.0
  9
$SPLFRAME
 70
     0
  9
$SPLINETYPE
 70
     6
  9
$SPLINESEGS
 70
     8
  9
$HANDSEED
  5
DD
  9
$SURFTAB1
 70
     6
  9
$SURFTAB2
 70
     6
  9
$SURFTYPE
 70
     6
  9
$SURFU
 70
     6
  9
$SURFV
 70
     6
  9
$UCSBASE
  2

  9
$UCSNAME
  2

  9
$UCSORG
 10
0.0
 20
0.0
 30
0.0
  9
$UCSXDIR
 10
1.0
 20
0.0
 30
0.0
  9
$UCSYDIR
 10
0.0
 20
1.0
 30
0.0
  9
$UCSORTHOREF
  2

  9
$UCSORTHOVIEW
 70
     0
  9
$UCSORGTOP
 10
0.0
 20
0.0
 30
0.0
  9
$UCSORGBOTTOM
 10
0.0
 20
0.0
 30
0.0
  9
$UCSORGLEFT
 10
0.0
 20
0.0
 30
0.0
  9
$UCSORGRIGHT
 10
0.0
 20
0.0
 30
0.0
  9
$UCSORGFRONT
 10
0.0
 20
0.0
 30
0.0
  9
$UCSORGBACK
 10
0.0
 20
0.0
 30
0.0
  9
$PUCSBASE
  2

  9
$PUCSNAME
  2

  9
$PUCSORG
 10
0.0
 20
0.0
 30
0.0
  9
$PUCSXDIR
 10
1.0
 20
0.0
 30
0.0
  9
$PUCSYDIR
 10
0.0
 20
1.0
 30
0.0
  9
$PUCSORTHOREF
  2

  9
$PUCSORTHOVIEW
 70
     0
  9
$PUCSORGTOP
 10
0.0
 20
0.0
 30
0.0
  9
$PUCSORGBOTTOM
 10
0.0
 20
0.0
 30
0.0
  9
$PUCSORGLEFT
 10
0.0
 20
0.0
 30
0.0
  9
$PUCSORGRIGHT
 10
0.0
 20
0.0
 30
0.0
  9
$PUCSORGFRONT
 10
0.0
 20
0.0
 30
0.0
  9
$PUCSORGBACK
 10
0.0
 20
0.0
 30
0.0
  9
$USERI1
 70
     0
  9
$USERI2
 70
     0
  9
$USERI3
 70
     0
  9
$USERI4
 70
     0
  9
$USERI5
 70
     0
  9
$USERR1
 40
0.0
  9
$USERR2
 40
0.0
  9
$USERR3
 40
0.0
  9
$USERR4
 40
0.0
  9
$USERR5
 40
0.0
  9
$WORLDVIEW
 70
     1
  9
$SHADEDGE
 70
     3
  9
$SHADEDIF
 70
    70
  9
$TILEMODE
 70
     1
  9
$MAXACTVP
 70
    64
  9
$PINSBASE
 10
0.0
 20
0.0
 30
0.0
  9
$PLIMCHECK
 70
     0
  9
$PEXTMIN
 10
1.0000000000E+20
 20
1.0000000000E+20
 30
1.0000000000E+20
  9
$PEXTMAX
 10
-1.0000000000E+20
 20
-1.0000000000E+20
 30
-1.0000000000E+20
  9
$PLIMMIN
 10
0.0
 20
0.0
  9
$PLIMMAX
 10
420.0
 20
297.0
  9
$UNITMODE
 70
     0
  9
$VISRETAIN
 70
     1
  9
$PLINEGEN
 70
     0
  9
$PSLTSCALE
 70
     1
  9
$TREEDEPTH
 70
  3020
  9
$CMLSTYLE
  2
Standard
  9
$CMLJUST
 70
     0
  9
$CMLSCALE
 40
20.0
  9
$PROXYGRAPHICS
 70
     1
  9
$MEASUREMENT
 70
     1
  9
$CELWEIGHT
370
    -1
  9
$ENDCAPS
280
     0
  9
$JOINSTYLE
280
     0
  9
$LWDISPLAY
290
     1
  9
$INSUNITS
 70
     4
  9
$HYPERLINKBASE
  1

  9
$STYLESHEET
  1

  9
$XEDIT
290
     1
  9
$CEPSNTYPE
380
     0
  9
$PSTYLEMODE
290
     1
  9
$FINGERPRINTGUID
  2
{4402abd9-2f4c-4d6b-81c2-6875131ef77f}
  9
$VERSIONGUID
  2
{FAEB1C32-E019-11D5-929B-00C0DF256EC4}
  9
$EXTNAMES
290
     1
  9
$PSVPSCALE
 40
0.0
  9
$OLESTARTUP
290
     0
  0
ENDSEC
  0
SECTION
  2
CLASSES
  0
CLASS
  1
ACDBDICTIONARYWDFLT
  2
AcDbDictionaryWithDefault
  3
ObjectDBX Classes
 90
        0
280
     0
281
     0
  0
CLASS
  1
VISUALSTYLE
  2
AcDbVisualStyle
  3
ObjectDBX Classes
 90
     4095
280
     0
281
     0
  0
CLASS
  1
MATERIAL
  2
AcDbMaterial
  3
ObjectDBX Classes
 90
     1153
280
     0
281
     0
  0
CLASS
  1
SCALE
  2
AcDbScale
  3
ObjectDBX Classes
 90
     1153
280
     0
281
     0
  0
CLASS
  1
TABLESTYLE
  2
AcDbTableStyle
  3
ObjectDBX Classes
 90
     4095
280
     0
281
     0
  0
CLASS
  1
MLEADERSTYLE
  2
AcDbMLeaderStyle
  3
ACDB_MLEADERSTYLE_CLASS
 90
     4095
280
     0
281
     0
  0
CLASS
  1
SUN
  2
AcDbSun
  3
SCENEOE
 90
     1153
280
     0
281
     0
  0
CLASS
  1
ACDBPLACEHOLDER
  2
AcDbPlaceHolder
  3
ObjectDBX Classes
 90
        0
280
     0
281
     0
  0
CLASS
  1
LAYOUT
  2
AcDbLayout
  3
ObjectDBX Classes
 90
        0
280
     0
281
     0
  0
ENDSEC
  0
SECTION
  2
TABLES
  0
TABLE
  2
VPORT
  5
8
330
0
100
AcDbSymbolTable
 70
     1
  0
VPORT
  5
29
330
8
100
AcDbSymbolTableRecord
100
AcDbViewportTableRecord
  2
*Active
 70
     0
 10
0.0
 20
0.0
 11
1.0
 21
1.0
 12
139.7
 22
107.95
 13
0.0
 23
0.0
 14
10.0
 24
10.0
 15
10.0
 25
10.0
 16
0.0
 26
0.0
 36
1.0
 17
0.0
 27
0.0
 37
0.0
 40
215.9
 41
1.2941176471
 42
50.0
 43
0.0
 44
0.0
 50
0.0
 51
0.0
 71
     0
 72
  2000
 73
     1
 74
     3
 75
     0
 76
     0
 77
     0
 78
     0
281
     0
 65
     1
110
0.0
120
0.0
130
0.0
111
1.0
121
0.0
131
0.0
112
0.0
122
1.0
132
0.0
 79
     0
146
0.0
  0
ENDTAB
  0
TABLE
  2
LTYPE
  5
5
330
0
100
AcDbSymbolTable
 70
     6
  0
LTYPE
  5
14
330
5
100
AcDbSymbolTableRecord
100
AcDbLinetypeTableRecord
  2
ByBlock
 70
     0
  3

 72
    65
 73
     0
 40
0.0
  0
LTYPE
  5
15
330
5
100
AcDbSymbolTableRecord
100
AcDbLinetypeTableRecord
  2
ByLayer
 70
     0
  3

 72
    65
 73
     0
 40
0.0
  0
LTYPE
  5
16
330
5
100
AcDbSymbolTableRecord
100
AcDbLinetypeTableRecord
  2
Continuous
 70
     0
  3
Solid line
 72
    65
 73
     0
 40
0.0
  0
LTYPE
  5
6E
330
5
100
AcDbSymbolTableRecord
100
AcDbLinetypeTableRecord
  2
HIDDEN
 70
     0
  3
Hidden __ __ __ __ __ __ __ __ __ __ __ __ __ __
 72
    65
 73
     2
 40
1.905
 49
1.27
 74
     0
 49
-0.635
 74
     0
  0
LTYPE
  5
6F
330
5
100
AcDbSymbolTableRecord
100
AcDbLinetypeTableRecord
  2
PHANTOM
 70
     0
  3
Phantom ______  __  __  ______  __  __  ______
 72
    65
 73
     6
 40
12.7
 49
6.35
 74
     0
 49
-1.27
 74
     0
 49
1.27
 74
     0
 49
-1.27
 74
     0
 49
1.27
 74
     0
 49
-1.27
 74
     0
  0
LTYPE
  5
70
330
5
100
AcDbSymbolTableRecord
100
AcDbLinetypeTableRecord
  2
CENTER
 70
     0
  3
Center ____ _ ____ _ ____ _ ____ _ ____ _ ____
 72
    65
 73
     4
 40
10.16
 49
6.35
 74
     0
 49
-1.27
 74
     0
 49
1.27
 74
     0
 49
-1.27
 74
     0
  0
LTYPE
  5
71
330
5
100
AcDbSymbolTableRecord
100
AcDbLinetypeTableRecord
  2
CENTERX2
 70
     0
  3
Center (2x) ________  __  ________  __  _____
 72
    65
 73
     4
 40
20.32
 49
12.7
 74
     0
 49
-2.54
 74
     0
 49
2.54
 74
     0
 49
-2.54
 74
     0
  0
LTYPE
  5
72
330
5
100
AcDbSymbolTableRecord
100
AcDbLinetypeTableRecord
  2
DOT2
 70
     0
  3
Dot (.5x) ........................................
 72
    65
 73
     2
 40
0.635
 49
0.0
 74
     0
 49
-0.635
 74
     0
  0
ENDTAB
  0
TABLE
  2
LAYER
  5
2
330
0
100
AcDbSymbolTable
 70
    17
  0
LAYER
  5
10
330
2
100
AcDbSymbolTableRecord
100
AcDbLayerTableRecord
  2
0
 70
     0
 62
     7
  6
Continuous
370
    -3
390
F
  0
LAYER
  5
73
330
2
100
AcDbSymbolTableRecord
100
AcDbLayerTableRecord
  2
FORMAT
 70
     0
 62
     7
  6
Continuous
370
    -3
390
F
  0
LAYER
  5
74
330
2
100
AcDbSymbolTableRecord
100
AcDbLayerTableRecord
  2
YARDIMCI_GEOMETRI
 70
     0
 62
    -6
  6
Continuous
290
     0
370
    -3
390
F
  0
LAYER
  5
75
330
2
100
AcDbSymbolTableRecord
100
AcDbLayerTableRecord
  2
SAYFA_CERCEVESI
 70
     0
 62
     7
  6
Continuous
370
    25
390
F
  0
LAYER
  5
76
330
2
100
AcDbSymbolTableRecord
100
AcDbLayerTableRecord
  2
ANTET
 70
     0
 62
     7
  6
Continuous
370
    -3
390
F
  0
LAYER
  5
77
330
2
100
AcDbSymbolTableRecord
100
AcDbLayerTableRecord
  2
OLCU
 70
     0
 62
   150
  6
Continuous
370
    -3
390
F
  0
LAYER
  5
78
330
2
100
AcDbSymbolTableRecord
100
AcDbLayerTableRecord
  2
METIN
 70
     0
 62
    96
  6
Continuous
370
    -3
390
F
  0
LAYER
  5
79
330
2
100
AcDbSymbolTableRecord
100
AcDbLayerTableRecord
  2
BALON
 70
     0
 62
     5
  6
Continuous
370
    -3
390
F
  0
LAYER
  5
7A
330
2
100
AcDbSymbolTableRecord
100
AcDbLayerTableRecord
  2
VURGU
 70
     0
 62
     7
  6
Continuous
370
    -3
390
F
  0
LAYER
  5
7B
330
2
100
AcDbSymbolTableRecord
100
AcDbLayerTableRecord
  2
SILIK
 70
     0
 62
     7
  6
Continuous
370
    -3
390
F
  0
LAYER
  5
7C
330
2
100
AcDbSymbolTableRecord
100
AcDbLayerTableRecord
  2
MODEL
 70
     0
 62
     7
  6
Continuous
370
    -3
390
F
  0
LAYER
  5
7D
330
2
100
AcDbSymbolTableRecord
100
AcDbLayerTableRecord
  2
DETAYLANDıRMA
 70
     0
 62
   190
  6
Continuous
370
    -3
390
F
  0
LAYER
  5
7E
330
2
100
AcDbSymbolTableRecord
100
AcDbLayerTableRecord
  2
TOLERANS
 70
     0
 62
   230
  6
Continuous
370
    -3
390
F
  0
LAYER
  5
7F
330
2
100
AcDbSymbolTableRecord
100
AcDbLayerTableRecord
  2
MERKEZ_CIZGILERI
 70
     0
 62
    30
  6
Continuous
370
    -3
390
F
  0
LAYER
  5
80
330
2
100
AcDbSymbolTableRecord
100
AcDbLayerTableRecord
  2
KESIT-DETAY_CIZGILERI
 70
     0
 62
     7
  6
Continuous
370
    -3
390
F
  0
LAYER
  5
81
330
2
100
AcDbSymbolTableRecord
100
AcDbLayerTableRecord
  2
\U+041E\U+0421\U+0415\U+0412\U+042B\U+0415
 70
     0
 62
     7
  6
Continuous
370
    -3
390
F
  0
LAYER
  5
82
330
2
100
AcDbSymbolTableRecord
100
AcDbLayerTableRecord
  2
\U+0412\U+041E\U+0414\U+042F\U+041D\U+042B\U+0415_\U+0417\U+041D\U+0410\U+041A\U+0418
 70
     0
 62
    11
  6
Continuous
370
    -3
390
F
  0
ENDTAB
  0
TABLE
  2
STYLE
  5
3
330
0
100
AcDbSymbolTable
 70
     1
  0
STYLE
  5
11
330
3
100
AcDbSymbolTableRecord
100
AcDbTextStyleTableRecord
  2
Standard
 70
     0
 40
0.0
 41
1.0
 50
0.0
 71
     0
 42
3.5
  3
txt
  4

  0
ENDTAB
  0
TABLE
  2
VIEW
  5
6
330
0
100
AcDbSymbolTable
 70
     0
  0
ENDTAB
  0
TABLE
  2
UCS
  5
7
330
0
100
AcDbSymbolTable
 70
     0
  0
ENDTAB
  0
TABLE
  2
APPID
  5
9
330
0
100
AcDbSymbolTable
 70
     1
  0
APPID
  5
12
330
9
100
AcDbSymbolTableRecord
100
AcDbRegAppTableRecord
  2
ACAD
 70
     0
  0
ENDTAB
  0
TABLE
  2
DIMSTYLE
  5
A
330
0
100
AcDbSymbolTable
 70
     1
100
AcDbDimStyleTable
  0
DIMSTYLE
105
27
330
A
100
AcDbSymbolTableRecord
100
AcDbDimStyleTableRecord
  2
ISO-25
 70
     0
 41
2.5
 42
0.625
 43
3.75
 44
1.25
 73
     0
 74
     0
 77
     1
 78
     8
140
2.5
141
2.5
143
0.0393700787
147
0.625
171
     3
172
     1
178
     0
271
     2
272
     2
274
     3
278
    44
283
     0
284
     8
340
11
  0
ENDTAB
  0
TABLE
  2
BLOCK_RECORD
  5
1
330
0
100
AcDbSymbolTable
 70
     3
  0
BLOCK_RECORD
  5
1F
330
1
100
AcDbSymbolTableRecord
100
AcDbBlockTableRecord
  2
*Model_Space
340
22
  0
BLOCK_RECORD
  5
1B
330
1
100
AcDbSymbolTableRecord
100
AcDbBlockTableRecord
  2
*Paper_Space
340
1E
  0
BLOCK_RECORD
  5
23
330
1
100
AcDbSymbolTableRecord
100
AcDbBlockTableRecord
  2
*Paper_Space0
340
26
  0
BLOCK_RECORD
  5
A5
330
1
100
AcDbSymbolTableRecord
100
AcDbBlockTableRecord
  2
SW_CENTERMARKSYMBOL_0
340
0
102
{BLKREFS
331
B0
102
}
  0
BLOCK_RECORD
  5
C3
330
1
100
AcDbSymbolTableRecord
100
AcDbBlockTableRecord
  2
SW_CENTERMARKSYMBOL_1
340
0
102
{BLKREFS
331
CE
102
}
  0
ENDTAB
  0
ENDSEC
  0
SECTION
  2
BLOCKS
  0
BLOCK
  5
20
330
1F
100
AcDbEntity
  8
0
100
AcDbBlockBegin
  2
*Model_Space
 70
     0
 10
0.0
 20
0.0
 30
0.0
  3
*Model_Space
  1

  0
ENDBLK
  5
21
330
1F
100
AcDbEntity
  8
0
100
AcDbBlockEnd
  0
BLOCK
  5
1C
330
1B
100
AcDbEntity
 67
     1
  8
0
100
AcDbBlockBegin
  2
*Paper_Space
 70
     0
 10
0.0
 20
0.0
 30
0.0
  3
*Paper_Space
  1

  0
ENDBLK
  5
1D
330
1B
100
AcDbEntity
 67
     1
  8
0
100
AcDbBlockEnd
  0
BLOCK
  5
24
330
23
100
AcDbEntity
  8
0
100
AcDbBlockBegin
  2
*Paper_Space0
 70
     0
 10
0.0
 20
0.0
 30
0.0
  3
*Paper_Space0
  1

  0
ENDBLK
  5
25
330
23
100
AcDbEntity
  8
0
100
AcDbBlockEnd
  0
BLOCK
  5
A6
330
A5
100
AcDbEntity
  8
0
100
AcDbBlockBegin
  2
SW_CENTERMARKSYMBOL_0
 70
     0
 10
0.0
 20
0.0
 30
0.0
  3
SW_CENTERMARKSYMBOL_0
  1

  0
LINE
  5
A8
330
A5
100
AcDbEntity
  8
FORMAT
 62
     0
100
AcDbLine
 10
0.0
 20
0.0
 30
0.0
 11
0.0
 21
2.5
 31
0.0
  0
LINE
  5
A9
330
A5
100
AcDbEntity
  8
FORMAT
 62
     0
100
AcDbLine
 10
0.0
 20
0.0
 30
0.0
 11
-2.5
 21
0.0
 31
0.0
  0
LINE
  5
AA
330
A5
100
AcDbEntity
  8
FORMAT
 62
     0
100
AcDbLine
 10
0.0
 20
0.0
 30
0.0
 11
0.0
 21
-2.5
 31
0.0
  0
LINE
  5
AB
330
A5
100
AcDbEntity
  8
FORMAT
 62
     0
100
AcDbLine
 10
0.0
 20
0.0
 30
0.0
 11
2.5
 21
0.0
 31
0.0
  0
LINE
  5
AC
330
A5
100
AcDbEntity
  8
FORMAT
 62
     0
100
AcDbLine
 10
0.0
 20
5.0
 30
0.0
 11
0.0
 21
65.0
 31
0.0
  0
LINE
  5
AD
330
A5
100
AcDbEntity
  8
FORMAT
 62
     0
100
AcDbLine
 10
-5.0
 20
0.0
 30
0.0
 11
-65.0
 21
0.0
 31
0.0
  0
LINE
  5
AE
330
A5
100
AcDbEntity
  8
FORMAT
 62
     0
100
AcDbLine
 10
0.0
 20
-5.0
 30
0.0
 11
0.0
 21
-65.0
 31
0.0
  0
LINE
  5
AF
330
A5
100
AcDbEntity
  8
FORMAT
 62
     0
100
AcDbLine
 10
5.0
 20
0.0
 30
0.0
 11
65.0
 21
0.0
 31
0.0
  0
ENDBLK
  5
A7
330
A5
100
AcDbEntity
  8
0
100
AcDbBlockEnd
  0
BLOCK
  5
C4
330
C3
100
AcDbEntity
  8
0
100
AcDbBlockBegin
  2
SW_CENTERMARKSYMBOL_1
 70
     0
 10
0.0
 20
0.0
 30
0.0
  3
SW_CENTERMARKSYMBOL_1
  1

  0
LINE
  5
C6
330
C3
100
AcDbEntity
  8
FORMAT
 62
     0
100
AcDbLine
 10
0.0
 20
0.0
 30
0.0
 11
0.0
 21
2.5
 31
0.0
  0
LINE
  5
C7
330
C3
100
AcDbEntity
  8
FORMAT
 62
     0
100
AcDbLine
 10
0.0
 20
0.0
 30
0.0
 11
-2.5
 21
0.0
 31
0.0
  0
LINE
  5
C8
330
C3
100
AcDbEntity
  8
FORMAT
 62
     0
100
AcDbLine
 10
0.0
 20
0.0
 30
0.0
 11
0.0
 21
-2.5
 31
0.0
  0
LINE
  5
C9
330
C3
100
AcDbEntity
  8
FORMAT
 62
     0
100
AcDbLine
 10
0.0
 20
0.0
 30
0.0
 11
2.5
 21
0.0
 31
0.0
  0
LINE
  5
CA
330
C3
100
AcDbEntity
  8
FORMAT
 62
     0
100
AcDbLine
 10
0.0
 20
5.0
 30
0.0
 11
0.0
 21
65.0
 31
0.0
  0
LINE
  5
CB
330
C3
100
AcDbEntity
  8
FORMAT
 62
     0
100
AcDbLine
 10
-5.0
 20
0.0
 30
0.0
 11
-65.0
 21
0.0
 31
0.0
  0
LINE
  5
CC
330
C3
100
AcDbEntity
  8
FORMAT
 62
     0
100
AcDbLine
 10
0.0
 20
-5.0
 30
0.0
 11
0.0
 21
-65.0
 31
0.0
  0
LINE
  5
CD
330
C3
100
AcDbEntity
  8
FORMAT
 62
     0
100
AcDbLine
 10
5.0
 20
0.0
 30
0.0
 11
65.0
 21
0.0
 31
0.0
  0
ENDBLK
  5
C5
330
C3
100
AcDbEntity
  8
0
100
AcDbBlockEnd
  0
ENDSEC
  0
SECTION
  2
ENTITIES
  0
LINE
  5
83
330
1F
100
AcDbEntity
  8
0
  6
Continuous
 62
     7
370
    25
100
AcDbLine
 10
55.0882788652
 20
99.2438368856
 30
0.0
 11
55.0882788652
 21
-13.8678155483
 31
0.0
  0
LINE
  5
84
330
1F
100
AcDbEntity
  8
0
  6
Continuous
 62
     7
370
    25
100
AcDbLine
 10
180.0882788652
 20
-13.8678155483
 30
0.0
 11
180.0882788652
 21
99.2438368856
 31
0.0
  0
ARC
  5
85
330
1F
100
AcDbEntity
  8
0
  6
Continuous
 62
     7
370
    25
100
AcDbCircle
 10
180.0882788652
 20
99.2438368034
 30
0.0
 40
125.0
100
AcDbArc
 50
135.0
 51
180.0
  0
LINE
  5
86
330
1F
100
AcDbEntity
  8
0
  6
Continuous
 62
     7
370
    25
100
AcDbLine
 10
173.3941035623
 20
269.326368755
 30
0.0
 11
91.699930867
 21
187.6321830212
 31
0.0
  0
LINE
  5
87
330
1F
100
AcDbEntity
  8
0
  6
Continuous
 62
     7
370
    25
100
AcDbLine
 10
180.0882788652
 20
99.2438368856
 30
0.0
 11
261.7824496979
 21
180.9380151688
 31
0.0
  0
LINE
  5
88
330
1F
100
AcDbEntity
  8
0
  6
Continuous
 62
     7
370
    25
100
AcDbLine
 10
117.5882788652
 20
-13.8678155483
 30
0.0
 11
180.0882788652
 21
-13.8678155483
 31
0.0
  0
LINE
  5
89
330
1F
100
AcDbEntity
  8
0
  6
Continuous
 62
     7
370
    25
100
AcDbLine
 10
55.0882788652
 20
-13.8678155483
 30
0.0
 11
117.5882788652
 21
-13.8678155483
 31
0.0
  0
LWPOLYLINE
  5
8A
330
1F
100
AcDbEntity
  8
0
  6
Continuous
 62
     7
370
    25
100
AcDbPolyline
 90
       26
 70
   128
 43
0.0
 10
217.5882803554
 20
225.1321770608
 10
220.419806456
 20
222.3006584107
 10
223.2397022003
 20
219.4807626664
 10
226.0363744849
 20
216.6840829312
 10
228.7983345145
 20
213.9221229016
 10
231.5142276043
 20
211.2062372624
 10
234.1728927845
 20
208.5475720822
 10
236.7634149546
 20
205.9570499121
 10
239.2751323337
 20
203.4453250824
 10
241.6977407688
 20
201.0227240979
 10
244.0212788338
 20
198.6991860329
 10
246.2362023348
 20
196.4842625319
 10
248.3333917612
 20
194.3870731055
 10
250.304249143
 20
192.4162157237
 10
252.1406682486
 20
190.579781717
 10
253.8351090902
 20
188.8853557765
 10
255.3806128258
 20
187.3398520409
 10
256.7708017582
 20
185.9496631085
 10
257.9999836439
 20
184.7204812228
 10
259.0631218905
 20
183.6573429762
 10
259.9558057541
 20
182.7646442114
 10
260.6744142527
 20
182.046050614
 10
261.2159671539
 20
181.5044977128
 10
261.5782292837
 20
181.1422206818
 10
261.7597403282
 20
180.9607096373
 10
261.7824496979
 20
180.9380151688
  0
LWPOLYLINE
  5
8B
330
1F
100
AcDbEntity
  8
0
  6
Continuous
 62
     7
370
    25
100
AcDbPolyline
 90
       26
 70
   128
 43
0.0
 10
173.3941035623
 20
269.326368755
 10
173.4168129319
 20
269.3036593854
 10
173.5983202511
 20
269.1221334397
 10
173.9605972821
 20
268.7598564087
 10
174.5021464581
 20
268.2183184086
 10
175.2207437808
 20
267.4997248112
 10
176.1134425456
 20
266.6070260464
 10
177.1765696162
 20
265.5438877999
 10
178.4057552272
 20
264.3147208153
 10
179.7959516102
 20
262.9245020806
 10
181.3414441699
 20
261.3790132462
 10
183.0358850116
 20
259.6845724045
 10
184.8723041171
 20
257.848153299
 10
186.8431614989
 20
255.8772959172
 10
188.9403583759
 20
253.7801064908
 10
191.1552744264
 20
251.5651978909
 10
193.4788124913
 20
249.2416598259
 10
195.9014209265
 20
246.8190290391
 10
198.4131457562
 20
244.3073191105
 10
201.0036604756
 20
241.7168118416
 10
203.6623331064
 20
239.0581466614
 10
206.3782261962
 20
236.3422312199
 10
209.1401787752
 20
233.5802860915
 10
211.9368510598
 20
230.7836063563
 10
214.7567468041
 20
227.963710612
 10
217.5882803554
 20
225.1321770608
  0
LINE
  5
8C
330
1F
100
AcDbEntity
  8
0
  6
Continuous
 62
     1
370
    25
100
AcDbLine
 10
55.0882788652
 20
99.2438368856
 30
0.0
 11
180.0882788652
 21
99.2438368856
 31
0.0
  0
LWPOLYLINE
  5
8D
330
1F
100
AcDbEntity
  8
0
  6
Continuous
 62
     1
370
    25
100
AcDbPolyline
 90
       50
 70
   128
 43
0.0
 10
91.699930867
 20
187.6321830212
 10
91.7907329554
 20
187.5413753449
 10
92.0627648288
 20
187.2693546473
 10
92.5149089003
 20
186.8172087132
 10
93.1453081125
 20
186.1868150889
 10
93.9513696635
 20
185.3807516753
 10
94.9297854954
 20
184.4023265301
 10
96.0765304321
 20
183.2555927693
 10
97.386893844
 20
181.9452144562
 10
98.8554945493
 20
180.4766156136
 10
100.4762919897
 20
178.8558163106
 10
102.2426300028
 20
177.0894922673
 10
104.1472489292
 20
175.184870547
 10
106.1823228652
 20
173.1497891604
 10
108.3394885341
 20
170.9926225602
 10
110.6098820733
 20
168.7222369372
 10
112.9841739589
 20
166.3479455172
 10
115.4526074229
 20
163.8795085608
 10
118.0050396056
 20
161.3270737587
 10
120.630981894
 20
158.7011315285
 10
123.3196435774
 20
156.0124703108
 10
126.0599764341
 20
153.2721467673
 10
128.8407193774
 20
150.4913963734
 10
131.6504469419
 20
147.681663221
 10
134.4776125902
 20
144.8545106112
 10
137.310597142
 20
142.0215167462
 10
140.1377627903
 20
139.1943492352
 10
142.9474903548
 20
136.384630984
 10
145.7282332981
 20
133.6038805901
 10
148.4685661549
 20
130.8635421454
 10
151.1572273726
 20
128.1748809277
 10
153.7831696028
 20
125.5489386975
 10
156.3356044048
 20
122.9965187966
 10
158.8040376359
 20
120.5280818402
 10
161.1783290559
 20
118.1537904202
 10
163.4487221295
 20
115.8833898961
 10
165.6058887297
 20
113.7262232958
 10
167.6409626657
 20
111.6911568104
 10
169.5455806607
 20
109.7865350901
 10
171.3119196052
 20
108.0201961457
 10
172.9327151829
 20
106.3993968426
 10
174.4013140255
 20
104.930798
 10
175.7116811627
 20
103.6204345881
 10
176.8584260994
 20
102.4736933767
 10
177.8368400687
 20
101.4952756821
 10
178.6429034823
 20
100.6892122685
 10
179.2733008319
 20
100.0588111936
 10
179.725446766
 20
99.6066727101
 10
179.9974786395
 20
99.3346371113
 10
180.0882788652
 20
99.2438368856
  0
LINE
  5
8E
330
1F
100
AcDbEntity
  8
0
  6
Continuous
 62
     7
370
    25
100
AcDbLine
 10
-178.5198972932
 20
225.1321770608
 30
0.0
 11
-178.5198972932
 21
143.4380062281
 31
0.0
  0
LINE
  5
8F
330
1F
100
AcDbEntity
  8
0
  6
Continuous
 62
     7
370
    25
100
AcDbLine
 10
-53.5198972932
 20
143.4380062281
 30
0.0
 11
-53.5198972932
 21
225.1321770608
 31
0.0
  0
LINE
  5
90
330
1F
100
AcDbEntity
  8
0
  6
Continuous
 62
     7
370
    25
100
AcDbLine
 10
-178.5198972932
 20
143.4380062281
 30
0.0
 11
-178.5198972932
 21
99.2438368856
 31
0.0
  0
LINE
  5
91
330
1F
100
AcDbEntity
  8
0
  6
Continuous
 62
     7
370
    25
100
AcDbLine
 10
-53.5198972932
 20
99.2438368856
 30
0.0
 11
-53.5198972932
 21
143.4380062281
 31
0.0
  0
LINE
  5
92
330
1F
100
AcDbEntity
  8
0
  6
Continuous
 62
     7
370
    25
100
AcDbLine
 10
-178.5198972932
 20
99.2438368856
 30
0.0
 11
-178.5198972932
 21
-13.8678155483
 31
0.0
  0
LINE
  5
93
330
1F
100
AcDbEntity
  8
0
  6
Continuous
 62
     7
370
    25
100
AcDbLine
 10
-53.5198972932
 20
-13.8678155483
 30
0.0
 11
-53.5198972932
 21
99.2438368856
 31
0.0
  0
LWPOLYLINE
  5
94
330
1F
100
AcDbEntity
  8
0
  6
Continuous
 62
     7
370
    25
100
AcDbPolyline
 90
       99
 70
   128
 43
0.0
 10
-178.5198972932
 20
225.1321770608
 10
-178.3914828113
 20
222.3006584107
 10
-178.0067720822
 20
219.4807626664
 10
-177.3673446289
 20
216.6840829312
 10
-176.4758267811
 20
213.9221229016
 10
-175.3358804992
 20
211.2062372624
 10
-173.9521959236
 20
208.5475720822
 10
-172.3304503968
 20
205.9570499121
 10
-170.4773159137
 20
203.4453250824
 10
-168.4004032424
 20
201.0227240979
 10
-166.1082470229
 20
198.6991860329
 10
-163.6102685145
 20
196.4842625319
 10
-160.9167308918
 20
194.3870731055
 10
-158.0387019923
 20
192.4162157237
 10
-154.9880096129
 20
190.579781717
 10
-151.7771893552
 20
188.8853557765
 10
-148.4194324723
 20
187.3398520409
 10
-144.9285411647
 20
185.9496631085
 10
-141.3188559374
 20
184.7204812228
 10
-137.6052127591
 20
183.6573429762
 10
-133.8028722814
 20
182.7646442114
 10
-129.9274555779
 20
182.046050614
 10
-125.9948910585
 20
181.5044977128
 10
-122.0213362387
 20
181.1422206818
 10
-118.0231209284
 20
180.9607096373
 10
-114.0166736579
 20
180.9607096373
 10
-110.0184583476
 20
181.1422206818
 10
-106.0449035278
 20
181.5044977128
 10
-102.1123390085
 20
182.046050614
 10
-98.2369223049
 20
182.7646442114
 10
-94.4345818272
 20
183.6573429762
 10
-90.7209386489
 20
184.7204812228
 10
-87.1112534216
 20
185.9496631085
 10
-83.620362114
 20
187.3398520409
 10
-80.2626052311
 20
188.8853557765
 10
-77.0517849734
 20
190.579781717
 10
-74.001092594
 20
192.4162157237
 10
-71.1230636945
 20
194.3870731055
 10
-68.4295260719
 20
196.4842625319
 10
-65.9315475634
 20
198.6991860329
 10
-63.6393913439
 20
201.0227240979
 10
-61.5624786726
 20
203.4453250824
 10
-59.7093441895
 20
205.9570499121
 10
-58.0875986627
 20
208.5475720822
 10
-56.7039140871
 20
211.2062372624
 10
-55.5639678052
 20
213.9221229016
 10
-54.6724499574
 20
216.6840829312
 10
-54.0330225042
 20
219.4807626664
 10
-53.648311775
 20
222.3006584107
 10
-53.5198972932
 20
225.1321770608
 10
-53.648311775
 20
227.963710612
 10
-54.0330225042
 20
230.7836063563
 10
-54.6724499574
 20
233.5802860915
 10
-55.5639678052
 20
236.3422312199
 10
-56.7039140871
 20
239.0581466614
 10
-58.0875986627
 20
241.7168118416
 10
-59.7093441895
 20
244.3073191105
 10
-61.5624786726
 20
246.8190290391
 10
-63.6393913439
 20
249.2416598259
 10
-65.9315475634
 20
251.5651978909
 10
-68.4295260719
 20
253.7801064908
 10
-71.1230636945
 20
255.8772959172
 10
-74.001092594
 20
257.848153299
 10
-77.0517849734
 20
259.6845724045
 10
-80.2626052311
 20
261.3790132462
 10
-83.620362114
 20
262.9245020806
 10
-87.1112534216
 20
264.3147208153
 10
-90.7209386489
 20
265.5438877999
 10
-94.4345818272
 20
266.6070260464
 10
-98.2369223049
 20
267.4997248112
 10
-102.1123390085
 20
268.2183184086
 10
-106.0449035278
 20
268.7598564087
 10
-110.0184583476
 20
269.1221334397
 10
-114.0166736579
 20
269.3036593854
 10
-118.0231209284
 20
269.3036593854
 10
-122.0213362387
 20
269.1221334397
 10
-125.9948910585
 20
268.7598564087
 10
-129.9274555779
 20
268.2183184086
 10
-133.8028722814
 20
267.4997248112
 10
-137.6052127591
 20
266.6070260464
 10
-141.3188559374
 20
265.5438877999
 10
-144.9285411647
 20
264.3147208153
 10
-148.4194324723
 20
262.9245020806
 10
-151.7771893552
 20
261.3790132462
 10
-154.9880096129
 20
259.6845724045
 10
-158.0387019923
 20
257.848153299
 10
-160.9167308918
 20
255.8772959172
 10
-163.6102685145
 20
253.7801064908
 10
-166.1082470229
 20
251.5651978909
 10
-168.4004032424
 20
249.2416598259
 10
-170.4773159137
 20
246.8190290391
 10
-172.3304503968
 20
244.3073191105
 10
-173.9521959236
 20
241.7168118416
 10
-175.3358804992
 20
239.0581466614
 10
-176.4758267811
 20
236.3422312199
 10
-177.3673446289
 20
233.5802860915
 10
-178.0067720822
 20
230.7836063563
 10
-178.3914828113
 20
227.963710612
 10
-178.5198972932
 20
225.1321770608
  0
LWPOLYLINE
  5
95
330
1F
100
AcDbEntity
  8
0
  6
Continuous
 62
     7
370
    25
100
AcDbPolyline
 90
       93
 70
   128
 43
0.0
 10
-171.1198986879
 20
225.1321770608
 10
-170.9914469531
 20
227.7910210549
 10
-170.6066915205
 20
230.4374523818
 10
-169.9674317053
 20
233.059147781
 10
-169.0766402891
 20
235.6438883006
 10
-167.938474696
 20
238.1796338021
 10
-166.5582397392
 20
240.6545080601
 10
-164.9423727205
 20
243.0570520817
 10
-163.0984061769
 20
245.376000589
 10
-161.0349380782
 20
247.6005651413
 10
-158.7615908495
 20
249.7203745305
 10
-156.2889592162
 20
251.7255343854
 10
-153.6285766771
 20
253.6067165791
 10
-150.7928447238
 20
255.3551294266
 10
-147.7949844113
 20
256.9626368939
 10
-144.648973029
 20
258.4217287957
 10
-141.3694807699
 20
259.7256102025
 10
-137.9717980883
 20
260.8682014405
 10
-134.4717630556
 20
261.844167894
 10
-130.8856989628
 20
262.6489796101
 10
-127.2303239813
 20
263.2788516938
 10
-123.5226794517
 20
263.7308635174
 10
-119.7800542133
 20
264.0029289185
 10
-116.0198972932
 20
264.0937663971
 10
-112.259740373
 20
264.0029289185
 10
-108.5171151346
 20
263.7308635174
 10
-104.809470605
 20
263.2788516938
 10
-101.1540956235
 20
262.6489796101
 10
-97.5680315307
 20
261.844167894
 10
-94.0679964981
 20
260.8682014405
 10
-90.6703138164
 20
259.7256102025
 10
-87.3908215573
 20
258.4217287957
 10
-84.244810175
 20
256.9626368939
 10
-81.2469498625
 20
255.3551294266
 10
-78.4112179092
 20
253.6067165791
 10
-75.7508353701
 20
251.7255343854
 10
-73.2782037368
 20
249.7203745305
 10
-71.0048565081
 20
247.6005651413
 10
-68.9413884094
 20
245.376000589
 10
-67.0974218658
 20
243.0570520817
 10
-65.4815548471
 20
240.6545080601
 10
-64.1013198903
 20
238.1796338021
 10
-62.9631542972
 20
235.6438883006
 10
-62.072362881
 20
233.059147781
 10
-61.4331030658
 20
230.4374523818
 10
-61.0483476332
 20
227.7910210549
 10
-60.9198958984
 20
225.1321770608
 10
-61.0483476332
 20
222.4733479678
 10
-61.4331030658
 20
219.8269166409
 10
-62.072362881
 20
217.2052212416
 10
-62.9631542972
 20
214.6204807221
 10
-64.1013198903
 20
212.0847501217
 10
-65.4815548471
 20
209.6098460614
 10
-67.0974218658
 20
207.2073169409
 10
-68.9413884094
 20
204.8883684336
 10
-71.0048565081
 20
202.6638038813
 10
-73.2782037368
 20
200.5439944922
 10
-75.7508353701
 20
198.5388346373
 10
-78.4112179092
 20
196.6576524436
 10
-81.2469498625
 20
194.909239596
 10
-84.244810175
 20
193.3017470299
 10
-87.3908215573
 20
191.8426551281
 10
-90.6703138164
 20
190.5387737214
 10
-94.0679964981
 20
189.3961824833
 10
-97.5680315307
 20
188.4202011286
 10
-101.1540956235
 20
187.6154043137
 10
-104.809470605
 20
186.9855173289
 10
-108.5171151346
 20
186.5334906041
 10
-112.259740373
 20
186.261425203
 10
-116.0198972932
 20
186.1706026255
 10
-119.7800542133
 20
186.261425203
 10
-123.5226794517
 20
186.5334906041
 10
-127.2303239813
 20
186.9855173289
 10
-130.8856989628
 20
187.6154043137
 10
-134.4717630556
 20
188.4202011286
 10
-137.9717980883
 20
189.3961824833
 10
-141.3694807699
 20
190.5387737214
 10
-144.648973029
 20
191.8426551281
 10
-147.7949844113
 20
193.3017470299
 10
-150.7928447238
 20
194.909239596
 10
-153.6285766771
 20
196.6576524436
 10
-156.2889592162
 20
198.5388346373
 10
-158.7615908495
 20
200.5439944922
 10
-161.0349380782
 20
202.6638038813
 10
-163.0984061769
 20
204.8883684336
 10
-164.9423727205
 20
207.2073169409
 10
-166.5582397392
 20
209.6098460614
 10
-167.938474696
 20
212.0847501217
 10
-169.0766402891
 20
214.6204807221
 10
-169.9674317053
 20
217.2052212416
 10
-170.6066915205
 20
219.8269166409
 10
-170.9914469531
 20
222.4733479678
 10
-171.1198986879
 20
225.1321770608
  0
LINE
  5
96
330
1F
100
AcDbEntity
  8
0
  6
Continuous
 62
     7
370
    25
100
AcDbLine
 10
-178.5198972932
 20
-13.8678155483
 30
0.0
 11
-53.5198972932
 21
-13.8678155483
 31
0.0
  0
LWPOLYLINE
  5
97
330
1F
100
AcDbEntity
  8
0
  6
Continuous
 62
     1
370
    25
100
AcDbPolyline
 90
       26
 70
   128
 43
0.0
 10
-116.0198972932
 20
99.2438368856
 10
-112.0155087112
 20
99.3346371113
 10
-108.0275747365
 20
99.6066727101
 10
-104.0724833867
 20
100.0588111936
 10
-100.1664867064
 20
100.6892122685
 10
-96.3256341776
 20
101.4952756821
 10
-92.5657098553
 20
102.4736933767
 10
-88.9021643809
 20
103.6204345881
 10
-85.3500497899
 20
104.930798
 10
-81.9239654949
 20
106.3993968426
 10
-78.6379875055
 20
108.0201961457
 10
-75.5056218615
 20
109.7865350901
 10
-72.539739441
 20
111.6911568104
 10
-69.7525219432
 20
113.7262232958
 10
-67.155428361
 20
115.8833898961
 10
-64.7591316512
 20
118.1537904202
 10
-62.5734740308
 20
120.5280818402
 10
-60.6074408999
 20
122.9965187966
 10
-58.8691086879
 20
125.5489386975
 10
-57.3656225017
 20
128.1748809277
 10
-56.1031551471
 20
130.8635421454
 10
-55.0869034043
 20
133.6038805901
 10
-54.321035873
 20
136.384630984
 10
-53.8087041488
 20
139.1943492352
 10
-53.5520092955
 20
142.0215167462
 10
-53.5198972932
 20
143.4380062281
  0
LWPOLYLINE
  5
98
330
1F
100
AcDbEntity
  8
0
  6
Continuous
 62
     1
370
    25
100
AcDbPolyline
 90
       26
 70
   128
 43
0.0
 10
-178.5198972932
 20
143.4380062281
 10
-178.4877852908
 20
142.0215167462
 10
-178.2310904375
 20
139.1943492352
 10
-177.7187587133
 20
136.384630984
 10
-176.952891182
 20
133.6038805901
 10
-175.9366394392
 20
130.8635421454
 10
-174.6741720846
 20
128.1748809277
 10
-173.1706858984
 20
125.5489386975
 10
-171.4323536864
 20
122.9965187966
 10
-169.4663205555
 20
120.5280818402
 10
-167.2806629351
 20
118.1537904202
 10
-164.8843662253
 20
115.8833898961
 10
-162.2872726432
 20
113.7262232958
 10
-159.5000551453
 20
111.6911568104
 10
-156.5341727248
 20
109.7865350901
 10
-153.4018070808
 20
108.0201961457
 10
-150.1158290914
 20
106.3993968426
 10
-146.6897447965
 20
104.930798
 10
-143.1376302055
 20
103.6204345881
 10
-139.474084731
 20
102.4736933767
 10
-135.7141604087
 20
101.4952756821
 10
-131.8733078799
 20
100.6892122685
 10
-127.9673111996
 20
100.0588111936
 10
-124.0122198498
 20
99.6066727101
 10
-120.0242858751
 20
99.3346371113
 10
-116.0198972932
 20
99.2438368856
  0
LINE
  5
99
330
1F
100
AcDbEntity
  8
0
  6
Continuous
 62
     1
370
    25
100
AcDbLine
 10
-116.0198972932
 20
99.2438368856
 30
0.0
 11
-53.5198972932
 21
99.2438368856
 31
0.0
  0
LINE
  5
9A
330
1F
100
AcDbEntity
  8
0
  6
Continuous
 62
     1
370
    25
100
AcDbLine
 10
-178.5198972932
 20
99.2438368856
 30
0.0
 11
-116.0198972932
 21
99.2438368856
 31
0.0
  0
LINE
  5
9B
330
1F
100
AcDbEntity
  8
0
  6
Continuous
 62
     7
370
    25
100
AcDbLine
 10
217.5882803554
 20
482.7536324079
 30
0.0
 11
135.8941057974
 21
482.7536324079
 31
0.0
  0
LINE
  5
9C
330
1F
100
AcDbEntity
  8
0
  6
Continuous
 62
     7
370
    25
100
AcDbLine
 10
135.8941057974
 20
357.7536324079
 30
0.0
 11
217.5882803554
 21
357.7536324079
 31
0.0
  0
LINE
  5
9D
330
1F
100
AcDbEntity
  8
0
  6
Continuous
 62
     7
370
    25
100
AcDbLine
 10
135.8941057974
 20
482.7536324079
 30
0.0
 11
117.5882788652
 21
482.7536324079
 31
0.0
  0
LINE
  5
9E
330
1F
100
AcDbEntity
  8
0
  6
Continuous
 62
     7
370
    25
100
AcDbLine
 10
117.5882788652
 20
357.7536324079
 30
0.0
 11
135.8941057974
 21
357.7536324079
 31
0.0
  0
CIRCLE
  5
9F
330
1F
100
AcDbEntity
  8
0
  6
Continuous
 62
     7
370
    25
100
AcDbCircle
 10
117.5882788652
 20
420.2536324079
 30
0.0
 40
55.10000000000002
  0
CIRCLE
  5
A0
330
1F
100
AcDbEntity
  8
0
  6
Continuous
 62
     7
370
    25
100
AcDbCircle
 10
117.5882788652
 20
420.2536324079
 30
0.0
 40
62.5
  0
LWPOLYLINE
  5
A1
330
1F
100
AcDbEntity
  8
0
  6
Continuous
 62
     7
370
    25
100
AcDbPolyline
 90
       51
 70
   128
 43
0.0
 10
217.5882803554
 20
482.7536324079
 10
220.419806456
 20
482.625217926
 10
223.2397022003
 20
482.2405071969
 10
226.0363744849
 20
481.6010797436
 10
228.7983345145
 20
480.7095618959
 10
231.5142276043
 20
479.5696156139
 10
234.1728927845
 20
478.1859310384
 10
236.7634149546
 20
476.5641855116
 10
239.2751323337
 20
474.7110510285
 10
241.6977407688
 20
472.6341383572
 10
244.0212788338
 20
470.3419821377
 10
246.2362023348
 20
467.8440036292
 10
248.3333917612
 20
465.1504660065
 10
250.304249143
 20
462.2724371071
 10
252.1406682486
 20
459.2217447276
 10
253.8351090902
 20
456.01092447
 10
255.3806128258
 20
452.6531675871
 10
256.7708017582
 20
449.1622762795
 10
257.9999836439
 20
445.5525910522
 10
259.0631218905
 20
441.8389478738
 10
259.9558057541
 20
438.0366073961
 10
260.6744142527
 20
434.1611906926
 10
261.2159671539
 20
430.2286261733
 10
261.5782292837
 20
426.2550713534
 10
261.7597403282
 20
422.2568560432
 10
261.7597403282
 20
418.2504087727
 10
261.5782292837
 20
414.2521934624
 10
261.2159671539
 20
410.2786386426
 10
260.6744142527
 20
406.3460741232
 10
259.9558057541
 20
402.4706574197
 10
259.0631218905
 20
398.668316942
 10
257.9999836439
 20
394.9546737636
 10
256.7708017582
 20
391.3449885364
 10
255.3806128258
 20
387.8540972288
 10
253.8351090902
 20
384.4963403459
 10
252.1406682486
 20
381.2855200882
 10
250.304249143
 20
378.2348277087
 10
248.3333917612
 20
375.3567988093
 10
246.2362023348
 20
372.6632611866
 10
244.0212788338
 20
370.1652826781
 10
241.6977407688
 20
367.8731264587
 10
239.2751323337
 20
365.7962137873
 10
236.7634149546
 20
363.9430793042
 10
234.1728927845
 20
362.3213337774
 10
231.5142276043
 20
360.9376492019
 10
228.7983345145
 20
359.79770292
 10
226.0363744849
 20
358.9061850722
 10
223.2397022003
 20
358.2667576189
 10
220.419806456
 20
357.8820468898
 10
217.5882803554
 20
357.7536324079
 10
217.5882803554
 20
357.7536324079
  0
LWPOLYLINE
  5
A2
330
1F
100
AcDbEntity
  8
0
  6
Continuous
 62
     1
370
    25
100
AcDbPolyline
 90
       26
 70
   128
 43
0.0
 10
180.0882788652
 20
420.2536324079
 10
179.9974786395
 20
416.249243826
 10
179.725446766
 20
412.2613098512
 10
179.2733008319
 20
408.3062185015
 10
178.6429034823
 20
404.4002218212
 10
177.8368400687
 20
400.5593692924
 10
176.8584260994
 20
396.79944497
 10
175.7116811627
 20
393.1358994956
 10
174.4013140255
 20
389.5837849046
 10
172.9327151829
 20
386.1577006097
 10
171.3119196052
 20
382.8717226203
 10
169.5455806607
 20
379.7393569763
 10
167.6409626657
 20
376.7734745557
 10
165.6058887297
 20
373.9862570579
 10
163.4487221295
 20
371.3891634758
 10
161.1783290559
 20
368.992866766
 10
158.8040376359
 20
366.8072091456
 10
156.3356044048
 20
364.8411760147
 10
153.7831696028
 20
363.1028438027
 10
151.1572273726
 20
361.5993576164
 10
148.4685661549
 20
360.3368902619
 10
145.7282332981
 20
359.3206385191
 10
142.9474903548
 20
358.5547709878
 10
140.1377627903
 20
358.0424392636
 10
137.310597142
 20
357.7857444103
 10
135.8941057974
 20
357.7536324079
  0
LWPOLYLINE
  5
A3
330
1F
100
AcDbEntity
  8
0
  6
Continuous
 62
     1
370
    25
100
AcDbPolyline
 90
       26
 70
   128
 43
0.0
 10
135.8941057974
 20
482.7536324079
 10
137.310597142
 20
482.7215204055
 10
140.1377627903
 20
482.4648255522
 10
142.9474903548
 20
481.9524938281
 10
145.7282332981
 20
481.1866262968
 10
148.4685661549
 20
480.1703745539
 10
151.1572273726
 20
478.9079071994
 10
153.7831696028
 20
477.4044210131
 10
156.3356044048
 20
475.6660888012
 10
158.8040376359
 20
473.7000556703
 10
161.1783290559
 20
471.5143980498
 10
163.4487221295
 20
469.1181013401
 10
165.6058887297
 20
466.5210077579
 10
167.6409626657
 20
463.7337902601
 10
169.5455806607
 20
460.7679078395
 10
171.3119196052
 20
457.6355421956
 10
172.9327151829
 20
454.3495642061
 10
174.4013140255
 20
450.9234799112
 10
175.7116811627
 20
447.3713653202
 10
176.8584260994
 20
443.7078198458
 10
177.8368400687
 20
439.9478955234
 10
178.6429034823
 20
436.1070429946
 10
179.2733008319
 20
432.2010463144
 10
179.725446766
 20
428.2459549646
 10
179.9974786395
 20
424.2580209899
 10
180.0882788652
 20
420.2536324079
  0
LWPOLYLINE
  5
A4
330
1F
100
AcDbEntity
  8
0
  6
Continuous
 62
     1
370
    25
100
AcDbPolyline
 90
       43
 70
   128
 43
0.0
 10
128.3115838
 20
474.3000993545
 10
127.9671369398
 20
474.2011668201
 10
125.3823954889
 20
473.3103754039
 10
122.8466648886
 20
472.1722098107
 10
120.3717675803
 20
470.791974854
 10
117.9692425926
 20
469.1761078353
 10
115.650291466
 20
467.3321412916
 10
113.4257265644
 20
465.268673193
 10
111.3059195036
 20
462.9953259642
 10
109.3007540608
 20
460.5226943309
 10
107.4195783863
 20
457.8623117919
 10
105.6711646074
 20
455.0265798385
 10
104.0636645907
 20
452.0287195261
 10
102.6045717576
 20
448.8827081437
 10
101.3006912822
 20
445.6032158847
 10
100.1581000442
 20
442.205533203
 10
99.1821280027
 20
438.7054981704
 10
98.3773218745
 20
435.1194340776
 10
97.747438615
 20
431.4640590961
 10
97.2954118902
 20
427.7564145665
 10
97.0233502144
 20
424.0137893281
 10
96.932522049
 20
420.2536324079
 10
97.0233502144
 20
416.4934754877
 10
97.2954118902
 20
412.7508502494
 10
97.747438615
 20
409.0432057197
 10
98.3773218745
 20
405.3878307383
 10
99.1821280027
 20
401.8017666454
 10
100.1581000442
 20
398.3017316128
 10
101.3006912822
 20
394.9040489311
 10
102.6045717576
 20
391.6245566721
 10
104.0636645907
 20
388.4785452898
 10
105.6711646074
 20
385.4806849773
 10
107.4195783863
 20
382.6449530239
 10
109.3007540608
 20
379.9845704849
 10
111.3059195036
 20
377.5119388516
 10
113.4257265644
 20
375.2385916228
 10
115.650291466
 20
373.1751235242
 10
117.9692425926
 20
371.3311569805
 10
120.3717675803
 20
369.7152899618
 10
122.8466648886
 20
368.3350550051
 10
125.3823954889
 20
367.1968894119
 10
127.9671369398
 20
366.3060979958
 10
128.3115838
 20
366.2071654613
  0
INSERT
  5
B0
330
1F
100
AcDbEntity
  8
FORMAT
 62
     7
100
AcDbBlockReference
  2
SW_CENTERMARKSYMBOL_0
 10
117.5882788652
 20
420.2536324079
 30
0.0
  0
LINE
  5
B1
330
1F
100
AcDbEntity
  8
0
  6
Continuous
 62
     7
370
    25
100
AcDbLine
 10
373.6513084522
 20
99.2438368856
 30
0.0
 11
373.6513084522
 21
-13.8678155483
 31
0.0
  0
LINE
  5
B2
330
1F
100
AcDbEntity
  8
0
  6
Continuous
 62
     7
370
    25
100
AcDbLine
 10
498.6513084522
 20
-13.8678155483
 30
0.0
 11
498.6513084522
 21
99.2438368856
 31
0.0
  0
LINE
  5
B3
330
1F
100
AcDbEntity
  8
0
  6
Continuous
 62
     7
370
    25
100
AcDbLine
 10
498.6513084522
 20
99.2438368856
 30
0.0
 11
498.6513084522
 21
143.4380062281
 31
0.0
  0
LINE
  5
B4
330
1F
100
AcDbEntity
  8
0
  6
Continuous
 62
     7
370
    25
100
AcDbLine
 10
373.6513084522
 20
143.4380062281
 30
0.0
 11
373.6513084522
 21
99.2438368856
 31
0.0
  0
LINE
  5
B5
330
1F
100
AcDbEntity
  8
0
  6
Continuous
 62
     7
370
    25
100
AcDbLine
 10
373.6513084522
 20
225.1321770608
 30
0.0
 11
373.6513084522
 21
143.4380062281
 31
0.0
  0
LINE
  5
B6
330
1F
100
AcDbEntity
  8
0
  6
Continuous
 62
     7
370
    25
100
AcDbLine
 10
498.6513084522
 20
143.4380062281
 30
0.0
 11
498.6513084522
 21
225.1321770608
 31
0.0
  0
LINE
  5
B7
330
1F
100
AcDbEntity
  8
0
  6
Continuous
 62
     7
370
    25
100
AcDbLine
 10
373.6513084522
 20
-13.8678155483
 30
0.0
 11
498.6513084522
 21
-13.8678155483
 31
0.0
  0
LWPOLYLINE
  5
B8
330
1F
100
AcDbEntity
  8
0
  6
Continuous
 62
     7
370
    25
100
AcDbPolyline
 90
       50
 70
   128
 43
0.0
 10
373.6513084522
 20
225.1321770608
 10
373.7797229341
 20
227.963710612
 10
374.1644336632
 20
230.7836063563
 10
374.8038611165
 20
233.5802860915
 10
375.6953789643
 20
236.3422312199
 10
376.8353252462
 20
239.0581466614
 10
378.2190098218
 20
241.7168118416
 10
379.8407553486
 20
244.3073191105
 10
381.6938898317
 20
246.8190290391
 10
383.770802503
 20
249.2416598259
 10
386.0629587225
 20
251.5651978909
 10
388.5609372309
 20
253.7801064908
 10
391.2544748536
 20
255.8772959172
 10
394.1325037531
 20
257.848153299
 10
397.1831961325
 20
259.6845724045
 10
400.3940163902
 20
261.3790132462
 10
403.7517732731
 20
262.9245020806
 10
407.2426645807
 20
264.3147208153
 10
410.852349808
 20
265.5438877999
 10
414.5659929863
 20
266.6070260464
 10
418.368333464
 20
267.4997248112
 10
422.2437501675
 20
268.2183184086
 10
426.1763146869
 20
268.7598564087
 10
430.1498695067
 20
269.1221334397
 10
434.148084817
 20
269.3036593854
 10
438.1545320875
 20
269.3036593854
 10
442.1527473978
 20
269.1221334397
 10
446.1263022176
 20
268.7598564087
 10
450.0588667369
 20
268.2183184086
 10
453.9342834405
 20
267.4997248112
 10
457.7366239182
 20
266.6070260464
 10
461.4502670965
 20
265.5438877999
 10
465.0599523238
 20
264.3147208153
 10
468.5508436314
 20
262.9245020806
 10
471.9086005143
 20
261.3790132462
 10
475.1194207719
 20
259.6845724045
 10
478.1701131514
 20
257.848153299
 10
481.0481420509
 20
255.8772959172
 10
483.7416796735
 20
253.7801064908
 10
486.239658182
 20
251.5651978909
 10
488.5318144015
 20
249.2416598259
 10
490.6087270728
 20
246.8190290391
 10
492.4618615559
 20
244.3073191105
 10
494.0836070827
 20
241.7168118416
 10
495.4672916583
 20
239.0581466614
 10
496.6072379402
 20
236.3422312199
 10
497.498755788
 20
233.5802860915
 10
498.1381832412
 20
230.7836063563
 10
498.5228939704
 20
227.963710612
 10
498.6513084522
 20
225.1321770608
  0
LINE
  5
B9
330
1F
100
AcDbEntity
  8
0
  6
Continuous
 62
     1
370
    25
100
AcDbLine
 10
373.6513084522
 20
99.2438368856
 30
0.0
 11
498.6513084522
 21
99.2438368856
 31
0.0
  0
LWPOLYLINE
  5
BA
330
1F
100
AcDbEntity
  8
0
  6
Continuous
 62
     1
370
    25
100
AcDbPolyline
 90
       51
 70
   128
 43
0.0
 10
373.6513084522
 20
143.4380062281
 10
373.6834204546
 20
144.8545106112
 10
373.9401153079
 20
147.681663221
 10
374.4524470321
 20
150.4913963734
 10
375.2183145634
 20
153.2721467673
 10
376.2345663062
 20
156.0124703108
 10
377.4970336608
 20
158.7011315285
 10
379.000519847
 20
161.3270737587
 10
380.738852059
 20
163.8795085608
 10
382.7048851899
 20
166.3479455172
 10
384.8905428103
 20
168.7222369372
 10
387.2868395201
 20
170.9926225602
 10
389.8839331022
 20
173.1497891604
 10
392.6711506001
 20
175.184870547
 10
395.6370330206
 20
177.0894922673
 10
398.7693986646
 20
178.8558163106
 10
402.055376654
 20
180.4766156136
 10
405.4814609489
 20
181.9452144562
 10
409.0335755399
 20
183.2555927693
 10
412.6971210143
 20
184.4023265301
 10
416.4570453367
 20
185.3807516753
 10
420.2978978655
 20
186.1868150889
 10
424.2038945458
 20
186.8172087132
 10
428.1589858956
 20
187.2693546473
 10
432.1469198703
 20
187.5413753449
 10
436.1513084522
 20
187.6321830212
 10
440.1556970342
 20
187.5413753449
 10
444.1436310089
 20
187.2693546473
 10
448.0987223587
 20
186.8172087132
 10
452.004719039
 20
186.1868150889
 10
455.8455715678
 20
185.3807516753
 10
459.6054958901
 20
184.4023265301
 10
463.2690413645
 20
183.2555927693
 10
466.8211559555
 20
181.9452144562
 10
470.2472402505
 20
180.4766156136
 10
473.5332182399
 20
178.8558163106
 10
476.6655838839
 20
177.0894922673
 10
479.6314663044
 20
175.184870547
 10
482.4186838022
 20
173.1497891604
 10
485.0157773844
 20
170.9926225602
 10
487.4120740942
 20
168.7222369372
 10
489.5977317146
 20
166.3479455172
 10
491.5637648455
 20
163.8795085608
 10
493.3020970575
 20
161.3270737587
 10
494.8055832437
 20
158.7011315285
 10
496.0680505983
 20
156.0124703108
 10
497.0843023411
 20
153.2721467673
 10
497.8501698724
 20
150.4913963734
 10
498.3625015966
 20
147.681663221
 10
498.6191964499
 20
144.8545106112
 10
498.6513084522
 20
143.4380062281
  0
LINE
  5
BB
330
1F
100
AcDbEntity
  8
0
  6
Continuous
 62
     7
370
    25
100
AcDbLine
 10
217.5882803554
 20
-145.6676309236
 30
0.0
 11
135.8941057974
 21
-145.6676309236
 31
0.0
  0
LINE
  5
BC
330
1F
100
AcDbEntity
  8
0
  6
Continuous
 62
     7
370
    25
100
AcDbLine
 10
135.8941057974
 20
-270.6676309236
 30
0.0
 11
217.5882803554
 21
-270.6676309236
 31
0.0
  0
LINE
  5
BD
330
1F
100
AcDbEntity
  8
0
  6
Continuous
 62
     7
370
    25
100
AcDbLine
 10
117.5882788652
 20
-270.6676309236
 30
0.0
 11
135.8941057974
 21
-270.6676309236
 31
0.0
  0
LINE
  5
BE
330
1F
100
AcDbEntity
  8
0
  6
Continuous
 62
     7
370
    25
100
AcDbLine
 10
135.8941057974
 20
-145.6676309236
 30
0.0
 11
117.5882788652
 21
-145.6676309236
 31
0.0
  0
LWPOLYLINE
  5
BF
330
1F
100
AcDbEntity
  8
0
  6
Continuous
 62
     7
370
    25
100
AcDbPolyline
 90
       99
 70
   128
 43
0.0
 10
217.5882803554
 20
-270.6676309236
 10
220.419806456
 20
-270.5392164417
 10
223.2397022003
 20
-270.1545057126
 10
226.0363744849
 20
-269.5150782593
 10
228.7983345145
 20
-268.6235604115
 10
231.5142276043
 20
-267.4836141296
 10
234.1728927845
 20
-266.0999295541
 10
236.7634149546
 20
-264.4781840273
 10
239.2751323337
 20
-262.6250495442
 10
241.6977407688
 20
-260.5481368728
 10
244.0212788338
 20
-258.2559806534
 10
246.2362023348
 20
-255.7580021449
 10
248.3333917612
 20
-253.0644645222
 10
250.304249143
 20
-250.1864356228
 10
252.1406682486
 20
-247.1357432433
 10
253.8351090902
 20
-243.9249229856
 10
255.3806128258
 20
-240.5671661027
 10
256.7708017582
 20
-237.0762747951
 10
257.9999836439
 20
-233.4665895678
 10
259.0631218905
 20
-229.7529463895
 10
259.9558057541
 20
-225.9506059118
 10
260.6744142527
 20
-222.0751892083
 10
261.2159671539
 20
-218.1426246889
 10
261.5782292837
 20
-214.1690698691
 10
261.7597403282
 20
-210.1708545588
 10
261.7597403282
 20
-206.1644072883
 10
261.5782292837
 20
-202.166191978
 10
261.2159671539
 20
-198.1926371582
 10
260.6744142527
 20
-194.2600726389
 10
259.9558057541
 20
-190.3846559354
 10
259.0631218905
 20
-186.5823154577
 10
257.9999836439
 20
-182.8686722793
 10
256.7708017582
 20
-179.258987052
 10
255.3806128258
 20
-175.7680957444
 10
253.8351090902
 20
-172.4103388615
 10
252.1406682486
 20
-169.1995186039
 10
250.304249143
 20
-166.1488262244
 10
248.3333917612
 20
-163.270797325
 10
246.2362023348
 20
-160.5772597023
 10
244.0212788338
 20
-158.0792811938
 10
241.6977407688
 20
-155.7871249743
 10
239.2751323337
 20
-153.710212303
 10
236.7634149546
 20
-151.8570778199
 10
234.1728927845
 20
-150.2353322931
 10
231.5142276043
 20
-148.8516477175
 10
228.7983345145
 20
-147.7117014356
 10
226.0363744849
 20
-146.8201835879
 10
223.2397022003
 20
-146.1807561346
 10
220.419806456
 20
-145.7960454055
 10
217.5882803554
 20
-145.6676309236
 10
214.7567468041
 20
-145.7960454055
 10
211.9368510598
 20
-146.1807561346
 10
209.1401787752
 20
-146.8201835879
 10
206.3782261962
 20
-147.7117014356
 10
203.6623331064
 20
-148.8516477175
 10
201.0036604756
 20
-150.2353322931
 10
198.4131457562
 20
-151.8570778199
 10
195.9014209265
 20
-153.710212303
 10
193.4788124913
 20
-155.7871249743
 10
191.1552744264
 20
-158.0792811938
 10
188.9403583759
 20
-160.5772597023
 10
186.8431614989
 20
-163.270797325
 10
184.8723041171
 20
-166.1488262244
 10
183.0358850116
 20
-169.1995186039
 10
181.3414441699
 20
-172.4103388615
 10
179.7959516102
 20
-175.7680957444
 10
178.4057552272
 20
-179.258987052
 10
177.1765696162
 20
-182.8686722793
 10
176.1134425456
 20
-186.5823154577
 10
175.2207437808
 20
-190.3846559354
 10
174.5021464581
 20
-194.2600726389
 10
173.9605972821
 20
-198.1926371582
 10
173.5983202511
 20
-202.166191978
 10
173.4168129319
 20
-206.1644072883
 10
173.4168129319
 20
-210.1708545588
 10
173.5983202511
 20
-214.1690698691
 10
173.9605972821
 20
-218.1426246889
 10
174.5021464581
 20
-222.0751892083
 10
175.2207437808
 20
-225.9506059118
 10
176.1134425456
 20
-229.7529463895
 10
177.1765696162
 20
-233.4665895678
 10
178.4057552272
 20
-237.0762747951
 10
179.7959516102
 20
-240.5671661027
 10
181.3414441699
 20
-243.9249229856
 10
183.0358850116
 20
-247.1357432433
 10
184.8723041171
 20
-250.1864356228
 10
186.8431614989
 20
-253.0644645222
 10
188.9403583759
 20
-255.7580021449
 10
191.1552744264
 20
-258.2559806534
 10
193.4788124913
 20
-260.5481368728
 10
195.9014209265
 20
-262.6250495442
 10
198.4131457562
 20
-264.4781840273
 10
201.0036604756
 20
-266.0999295541
 10
203.6623331064
 20
-267.4836141296
 10
206.3782261962
 20
-268.6235604115
 10
209.1401787752
 20
-269.5150782593
 10
211.9368510598
 20
-270.1545057126
 10
214.7567468041
 20
-270.5392164417
 10
217.5882803554
 20
-270.6676309236
  0
LWPOLYLINE
  5
C0
330
1F
100
AcDbEntity
  8
0
  6
Continuous
 62
     7
370
    25
100
AcDbPolyline
 90
       93
 70
   128
 43
0.0
 10
217.5882803554
 20
-263.2676323183
 10
214.9294438118
 20
-263.1391805835
 10
212.2830124849
 20
-262.7544251509
 10
209.6613096351
 20
-262.1151653357
 10
207.0765691155
 20
-261.2243739196
 10
204.5408385152
 20
-260.0862083264
 10
202.0659419054
 20
-258.7059733697
 10
199.663412785
 20
-257.090106351
 10
197.3444642777
 20
-255.2461398073
 10
195.1198997253
 20
-253.1826717087
 10
193.0000903362
 20
-250.9093244799
 10
190.9949304813
 20
-248.4366928466
 10
189.1137557382
 20
-245.7763103076
 10
187.3653354401
 20
-242.9405783542
 10
185.7578354234
 20
-239.9427180417
 10
184.2987435216
 20
-236.7967066594
 10
182.9948621148
 20
-233.5172144004
 10
181.8522708768
 20
-230.1195317187
 10
180.8763044232
 20
-226.619496686
 10
180.0714964324
 20
-223.0334325932
 10
179.4416131729
 20
-219.3780576118
 10
178.9895864481
 20
-215.6704130821
 10
178.7175247723
 20
-211.9277878438
 10
178.6266947443
 20
-208.1676309236
 10
178.7175247723
 20
-204.4074740034
 10
178.9895864481
 20
-200.664848765
 10
179.4416131729
 20
-196.9572042354
 10
180.0714964324
 20
-193.3018292539
 10
180.8763044232
 20
-189.7157651611
 10
181.8522708768
 20
-186.2157301285
 10
182.9948621148
 20
-182.8180474468
 10
184.2987435216
 20
-179.5385551878
 10
185.7578354234
 20
-176.3925438054
 10
187.3653354401
 20
-173.394683493
 10
189.1137557382
 20
-170.5589515396
 10
190.9949304813
 20
-167.8985690006
 10
193.0000903362
 20
-165.4259373673
 10
195.1198997253
 20
-163.1525901385
 10
197.3444642777
 20
-161.0891220399
 10
199.663412785
 20
-159.2451554962
 10
202.0659419054
 20
-157.6292884775
 10
204.5408385152
 20
-156.2490535207
 10
207.0765691155
 20
-155.1108879276
 10
209.6613096351
 20
-154.2200965114
 10
212.2830124849
 20
-153.5808366962
 10
214.9294438118
 20
-153.1960812636
 10
217.5882803554
 20
-153.0676295288
 10
220.2471094483
 20
-153.1960812636
 10
222.8935482258
 20
-153.5808366962
 10
225.5152436251
 20
-154.2200965114
 10
228.0999915952
 20
-155.1108879276
 10
230.6357221955
 20
-156.2490535207
 10
233.1106188053
 20
-157.6292884775
 10
235.5131404752
 20
-159.2451554962
 10
237.8320889825
 20
-161.0891220399
 10
240.0566609854
 20
-163.1525901385
 10
242.1764629239
 20
-165.4259373673
 10
244.1816302294
 20
-167.8985690006
 10
246.0628124231
 20
-170.5589515396
 10
247.8112252707
 20
-173.394683493
 10
249.4187178368
 20
-176.3925438054
 10
250.8778097385
 20
-179.5385551878
 10
252.1816911453
 20
-182.8180474468
 10
253.3242823833
 20
-186.2157301285
 10
254.3002637381
 20
-189.7157651611
 10
255.105060553
 20
-193.3018292539
 10
255.7349475378
 20
-196.9572042354
 10
256.1869742626
 20
-200.664848765
 10
256.4590396637
 20
-204.4074740034
 10
256.5498622412
 20
-208.1676309236
 10
256.4590396637
 20
-211.9277878438
 10
256.1869742626
 20
-215.6704130821
 10
255.7349475378
 20
-219.3780576118
 10
255.105060553
 20
-223.0334325932
 10
254.3002637381
 20
-226.619496686
 10
253.3242823833
 20
-230.1195317187
 10
252.1816911453
 20
-233.5172144004
 10
250.8778097385
 20
-236.7967066594
 10
249.4187178368
 20
-239.9427180417
 10
247.8112252707
 20
-242.9405783542
 10
246.0628124231
 20
-245.7763103076
 10
244.1816302294
 20
-248.4366928466
 10
242.1764629239
 20
-250.9093244799
 10
240.0566609854
 20
-253.1826717087
 10
237.8320889825
 20
-255.2461398073
 10
235.5131404752
 20
-257.090106351
 10
233.1106188053
 20
-258.7059733697
 10
230.6357221955
 20
-260.0862083264
 10
228.0999915952
 20
-261.2243739196
 10
225.5152436251
 20
-262.1151653357
 10
222.8935482258
 20
-262.7544251509
 10
220.2471094483
 20
-263.1391805835
 10
217.5882803554
 20
-263.2676323183
  0
ARC
  5
C1
330
1F
100
AcDbEntity
  8
0
  6
Continuous
 62
     7
370
    25
100
AcDbCircle
 10
117.5882788652
 20
-208.1676309236
 30
0.0
 40
62.5
100
AcDbArc
 50
90.0
 51
270.0
  0
LWPOLYLINE
  5
C2
330
1F
100
AcDbEntity
  8
0
  6
Continuous
 62
     1
370
    25
100
AcDbPolyline
 90
       51
 70
   128
 43
0.0
 10
135.8941057974
 20
-145.6676309236
 10
134.4776125902
 20
-145.699742926
 10
131.6504469419
 20
-145.9564377793
 10
128.8407193774
 20
-146.4687695034
 10
126.0599764341
 20
-147.2346370347
 10
123.3196435774
 20
-148.2508887776
 10
120.630981894
 20
-149.5133561321
 10
118.0050396056
 20
-151.0168423184
 10
115.4526074229
 20
-152.7551745303
 10
112.9841739589
 20
-154.7212076612
 10
110.6098820733
 20
-156.9068652816
 10
108.3394885341
 20
-159.3031619914
 10
106.1823228652
 20
-161.9002555736
 10
104.1472489292
 20
-164.6874730714
 10
102.2426300028
 20
-167.6533554919
 10
100.4762919897
 20
-170.7857211359
 10
98.8554945493
 20
-174.0716991254
 10
97.386893844
 20
-177.4977834203
 10
96.0765304321
 20
-181.0498980113
 10
94.9297854954
 20
-184.7134434857
 10
93.9513696635
 20
-188.4733678081
 10
93.1453081125
 20
-192.3142203369
 10
92.5149089003
 20
-196.2202170171
 10
92.0627648288
 20
-200.1753083669
 10
91.7907329554
 20
-204.1632423416
 10
91.699930867
 20
-208.1676309236
 10
91.7907329554
 20
-212.1720195055
 10
92.0627648288
 20
-216.1599534803
 10
92.5149089003
 20
-220.11504483
 10
93.1453081125
 20
-224.0210415103
 10
93.9513696635
 20
-227.8618940391
 10
94.9297854954
 20
-231.6218183615
 10
96.0765304321
 20
-235.2853638359
 10
97.386893844
 20
-238.8374784269
 10
98.8554945493
 20
-242.2635627218
 10
100.4762919897
 20
-245.5495407112
 10
102.2426300028
 20
-248.6819063552
 10
104.1472489292
 20
-251.6477887758
 10
106.1823228652
 20
-254.4350062736
 10
108.3394885341
 20
-257.0320998557
 10
110.6098820733
 20
-259.4283965655
 10
112.9841739589
 20
-261.6140541859
 10
115.4526074229
 20
-263.5800873168
 10
118.0050396056
 20
-265.3184195288
 10
120.630981894
 20
-266.8219057151
 10
123.3196435774
 20
-268.0843730696
 10
126.0599764341
 20
-269.1006248124
 10
128.8407193774
 20
-269.8664923437
 10
131.6504469419
 20
-270.3788240679
 10
134.4776125902
 20
-270.6355189212
 10
135.8941057974
 20
-270.6676309236
  0
INSERT
  5
CE
330
1F
100
AcDbEntity
  8
FORMAT
 62
     7
100
AcDbBlockReference
  2
SW_CENTERMARKSYMBOL_1
 10
117.5882788652
 20
-208.1676309236
 30
0.0
  0
LINE
  5
CF
330
1F
100
AcDbEntity
  8
0
  6
Continuous
 62
     7
370
    25
100
AcDbLine
 10
342.4030661609
 20
-225.4518440524
 30
0.0
 11
342.4030661609
 21
-317.8121245645
 31
0.0
  0
LINE
  5
D0
330
1F
100
AcDbEntity
  8
0
  6
Continuous
 62
     7
370
    25
100
AcDbLine
 10
467.4030640217
 20
-317.8121245645
 30
0.0
 11
467.4030640217
 21
-225.4518440524
 31
0.0
  0
LINE
  5
D1
330
1F
100
AcDbEntity
  8
0
  6
Continuous
 62
     7
370
    25
100
AcDbLine
 10
421.4871545573
 20
-50.5884752137
 30
0.0
 11
363.7206523782
 21
-150.6429916699
 31
0.0
  0
LINE
  5
D2
330
1F
100
AcDbEntity
  8
0
  6
Continuous
 62
     7
370
    25
100
AcDbLine
 10
471.9738265224
 20
-213.1429850027
 30
0.0
 11
529.7403339699
 21
-113.0884655051
 31
0.0
  0
SPLINE
  5
D3
330
1F
100
AcDbEntity
  8
0
  6
Continuous
 62
     7
370
    25
100
AcDbSpline
210
0.0
220
0.0
230
1.0
 70
     8
 71
     3
 72
    22
 73
    18
 74
     0
 42
0.000000001
 43
0.00000001
 40
0.0
 40
0.0
 40
0.0
 40
0.0
 40
0.0390438095470753
 40
0.1061880702091077
 40
0.1734256625817402
 40
0.2408042681921665
 40
0.3083745395675204
 40
0.3761832355842566
 40
0.4442708877154551
 40
0.5126691803739214
 40
0.5813962485478291
 40
0.6504535583145659
 40
0.7198200125259412
 40
0.7894478966148708
 40
0.859259096788515
 40
0.9291085921578954
 40
0.9999999999999999
 40
0.9999999999999999
 40
0.9999999999999999
 40
0.9999999999999999
 10
363.7206523781678
 20
-150.6429916699118
 30
0.0
 10
363.202120233291
 20
-151.5526661465511
 30
0.0
 10
361.791860106408
 20
-154.0267222981756
 30
0.0
 10
359.6113831330087
 20
-158.1341888439246
 30
0.0
 10
357.2227601194024
 20
-162.9802813771254
 30
0.0
 10
354.9925342448625
 20
-167.9019887384712
 30
0.0
 10
352.9222455994412
 20
-172.8933603136271
 30
0.0
 10
351.0173304864225
 20
-177.9505507006332
 30
0.0
 10
349.2829033942252
 20
-183.0689372023161
 30
0.0
 10
347.7249677979646
 20
-188.2435579397826
 30
0.0
 10
346.3501170259478
 20
-193.4686602213966
 30
0.0
 10
345.1654494483656
 20
-198.737371387957
 30
0.0
 10
344.1789929692798
 20
-204.0412778370029
 30
0.0
 10
343.3971360360651
 20
-209.3702425017306
 30
0.0
 10
342.8334575736885
 20
-214.7104125029997
 30
0.0
 10
342.4718432593763
 20
-220.0771205473733
 30
0.0
 10
342.4261047286867
 20
-223.651449234914
 30
0.0
 10
342.4030661609412
 20
-225.4518440523995
 30
0.0
  0
SPLINE
  5
D4
330
1F
100
AcDbEntity
  8
0
  6
Continuous
 62
     7
370
    25
100
AcDbSpline
210
0.0
220
0.0
230
1.0
 70
     8
 71
     3
 72
    20
 73
    16
 74
     0
 42
0.000000001
 43
0.00000001
 40
0.0
 40
0.0
 40
0.0
 40
0.0
 40
0.053603311729171
 40
0.1384268622404406
 40
0.220649183622238
 40
0.301060776589086
 40
0.3803599976288028
 40
0.4591392710220934
 40
0.5378722090840014
 40
0.6169048707635814
 40
0.6963809322233723
 40
0.7764448129661929
 40
0.857131689435221
 40
0.9383862546134141
 40
1.0
 40
1.0
 40
1.0
 40
1.0
 10
467.4034143673356
 20
-225.4869153205775
 30
0.0
 10
467.4032459982897
 20
-225.4897851870517
 30
0.0
 10
467.4028111968199
 20
-225.4971964196464
 30
0.0
 10
467.4184361681005
 20
-225.2712745732198
 30
0.0
 10
467.4712125529571
 20
-224.8394738808082
 30
0.0
 10
467.5753886794429
 20
-224.2073961287421
 30
0.0
 10
467.7437106333583
 20
-223.3988951645801
 30
0.0
 10
467.9874777178723
 20
-222.4257623299902
 30
0.0
 10
468.3156685581805
 20
-221.3054686484507
 30
0.0
 10
468.7345197744311
 20
-220.057514893172
 30
0.0
 10
469.2474249441401
 20
-218.7045341073307
 30
0.0
 10
469.8535700705039
 20
-217.2712396882411
 30
0.0
 10
470.5517159930306
 20
-215.7855874322022
 30
0.0
 10
471.2616960289848
 20
-214.3962018051486
 30
0.0
 10
471.7633506450659
 20
-213.5219457830957
 30
0.0
 10
471.9796954710461
 20
-213.1449119417035
 30
0.0
  0
LWPOLYLINE
  5
D5
330
1F
100
AcDbEntity
  8
0
  6
Continuous
 62
     7
370
    25
100
AcDbPolyline
 90
       99
 70
   128
 43
0.0
 10
360.7088912671
 20
-292.29937107
 10
363.6312243389
 20
-290.7171827218
 10
366.7231510607
 20
-289.2463323786
 10
369.9719664626
 20
-287.892864928
 10
373.3643215182
 20
-286.6623424421
 10
376.886278133
 20
-285.5598215575
 10
380.5233588645
 20
-284.589830855
 10
384.260623972
 20
-283.756359835
 10
388.0827122463
 20
-283.0628292641
 10
391.973918718
 20
-282.5120919352
 10
395.9182552435
 20
-282.1064098579
 10
399.8995097741
 20
-281.8474504561
 10
403.9013240642
 20
-281.736278205
 10
407.9072582088
 20
-281.7733477875
 10
411.900845961
 20
-281.9585086563
 10
415.8656763916
 20
-282.2910004722
 10
419.7854623778
 20
-282.7694561451
 10
423.6440906527
 20
-283.3919094375
 10
427.4257100499
 20
-284.1558033284
 10
431.1147776019
 20
-285.0579983768
 10
434.6961375655
 20
-286.0947848871
 10
438.1550694952
 20
-287.2619076206
 10
441.4773626592
 20
-288.554566175
 10
444.6493634541
 20
-289.967451481
 10
447.6580392841
 20
-291.4947553068
 10
450.4910253175
 20
-293.1302033325
 10
453.1366798046
 20
-294.8670749188
 10
455.5841341268
 20
-296.6982320004
 10
457.823327041
 20
-298.6161510199
 10
459.8450619732
 20
-300.6129499199
 10
461.6410234819
 20
-302.6804250194
 10
463.2038404785
 20
-304.8100783862
 10
464.5270868856
 20
-306.993160796
 10
465.6053244427
 20
-309.2206994846
 10
466.4341237795
 20
-311.4835437685
 10
467.0100789036
 20
-313.7723916565
 10
467.3308216891
 20
-316.077840793
 10
467.395035047
 20
-318.3904173501
 10
467.2024581936
 20
-320.7006155659
 10
466.7538787482
 20
-322.9989448851
 10
466.0511406354
 20
-325.2759618936
 10
465.0971322314
 20
-327.5223075748
 10
463.895771876
 20
-329.7287521701
 10
462.4520012872
 20
-331.8862293935
 10
460.7717460485
 20
-333.9858714076
 10
458.861916926
 20
-336.0190536838
 10
456.7303585018
 20
-337.9774185725
 10
454.3858300764
 20
-339.8529197828
 10
451.8379664853
 20
-341.637851086
 10
449.0972389155
 20
-343.324878059
 10
446.1749058437
 20
-344.9070664072
 10
443.0829791219
 20
-346.3779167504
 10
439.83416372
 20
-347.731384201
 10
436.4418086644
 20
-348.9619066869
 10
432.9198520496
 20
-350.0644275715
 10
429.2827713181
 20
-351.034418274
 10
425.5455062106
 20
-351.867889294
 10
421.7234179363
 20
-352.5614198649
 10
417.8322114646
 20
-353.1121571938
 10
413.8878749391
 20
-353.5178392711
 10
409.9066204085
 20
-353.7767986729
 10
405.9048061184
 20
-353.8879709239
 10
401.8988719738
 20
-353.8509013415
 10
397.9052842216
 20
-353.6657404727
 10
393.940453791
 20
-353.3332486568
 10
390.0206678048
 20
-352.8547929839
 10
386.1620395299
 20
-352.2323396915
 10
382.3804201327
 20
-351.4684458006
 10
378.6913525807
 20
-350.5662507522
 10
375.1099926171
 20
-349.5294642419
 10
371.6510606873
 20
-348.3623415084
 10
368.3287675234
 20
-347.069682954
 10
365.1567667285
 20
-345.656797648
 10
362.1480908985
 20
-344.1294938221
 10
359.3151048651
 20
-342.4940457965
 10
356.669450378
 20
-340.7571742102
 10
354.2219960558
 20
-338.9260171286
 10
351.9828031416
 20
-337.0080981091
 10
349.9610682094
 20
-335.0112992091
 10
348.1651067007
 20
-332.9438241096
 10
346.6022897041
 20
-330.8141707427
 10
345.279043297
 20
-328.631088333
 10
344.2008057399
 20
-326.4035496444
 10
343.3720064031
 20
-324.1407053605
 10
342.796051279
 20
-321.8518574724
 10
342.4753084935
 20
-319.546408336
 10
342.4110951356
 20
-317.2338317789
 10
342.603671989
 20
-314.9236335631
 10
343.0522514344
 20
-312.6253042439
 10
343.7549895472
 20
-310.3482872354
 10
344.7089979512
 20
-308.1019415541
 10
345.9103583066
 20
-305.8954969589
 10
347.3541288954
 20
-303.7380197355
 10
349.0343841341
 20
-301.6383777214
 10
350.9442132566
 20
-299.6051954451
 10
353.0757716808
 20
-297.6468305565
 10
355.4203001062
 20
-295.7713293461
 10
357.9681636973
 20
-293.986398043
 10
360.7088912671
 20
-292.29937107
  0
LWPOLYLINE
  5
D6
330
1F
100
AcDbEntity
  8
0
  6
Continuous
 62
     7
370
    25
100
AcDbPolyline
 90
       93
 70
   128
 43
0.0
 10
365.9414804617
 20
-295.3200805144
 10
363.3734770978
 20
-296.9074263392
 10
360.9991045878
 20
-298.5922398694
 10
358.829428949
 20
-300.3666638537
 10
356.8745731628
 20
-302.222427416
 10
355.143647534
 20
-304.1508771349
 10
353.6447225256
 20
-306.1430231385
 10
352.3847885875
 20
-308.1895744607
 10
351.3697186196
 20
-310.2809911243
 10
350.6042449227
 20
-312.4075217776
 10
350.0919368082
 20
-314.5592500755
 10
349.8351861096
 20
-316.7261456218
 10
349.8351861096
 20
-318.8981035072
 10
350.0919368082
 20
-321.0649990535
 10
350.6042449227
 20
-323.2167273514
 10
351.3697186196
 20
-325.3432580047
 10
352.3847885875
 20
-327.4346746683
 10
353.6447225256
 20
-329.4812259905
 10
355.143647534
 20
-331.4733719941
 10
356.8745731628
 20
-333.401821713
 10
358.829428949
 20
-335.2575852753
 10
360.9991045878
 20
-337.0320092596
 10
363.3734770978
 20
-338.7168227897
 10
365.9414804617
 20
-340.3041686146
 10
368.691142011
 20
-341.7866454011
 10
371.609640872
 20
-343.157341475
 10
374.6833664114
 20
-344.4098685606
 10
377.8979914996
 20
-345.5383827848
 10
381.2385263464
 20
-346.5376248808
 10
384.6893983499
 20
-347.4029358695
 10
388.2345133408
 20
-348.1302802501
 10
391.8573458034
 20
-348.7162676694
 10
395.5410040708
 20
-349.1581662285
 10
399.2683106683
 20
-349.4539154079
 10
403.0218905574
 20
-349.6021344312
 10
406.7842396252
 20
-349.6021344312
 10
410.5378195143
 20
-349.4539154079
 10
414.2651261118
 20
-349.1581662285
 10
417.9487843792
 20
-348.7162676694
 10
421.5716168418
 20
-348.1302802501
 10
425.1167318327
 20
-347.4029358695
 10
428.5676038362
 20
-346.5376248808
 10
431.908138683
 20
-345.5383827848
 10
435.1227637712
 20
-344.4098685606
 10
438.1964893106
 20
-343.157341475
 10
441.1149881716
 20
-341.7866454011
 10
443.8646497209
 20
-340.3041686145
 10
446.4326530848
 20
-338.7168227897
 10
448.8070255948
 20
-337.0320092596
 10
450.9767012336
 20
-335.2575852753
 10
452.9315570198
 20
-333.401821713
 10
454.6624826486
 20
-331.4733719941
 10
456.161407657
 20
-329.4812259905
 10
457.4213415951
 20
-327.4346746683
 10
458.436411563
 20
-325.3432580047
 10
459.2018852599
 20
-323.2167273514
 10
459.7141933744
 20
-321.0649990535
 10
459.970944073
 20
-318.8981035072
 10
459.970944073
 20
-316.7261456218
 10
459.7141933744
 20
-314.5592500755
 10
459.2018852599
 20
-312.4075217776
 10
458.436411563
 20
-310.2809911243
 10
457.4213415951
 20
-308.1895744607
 10
456.161407657
 20
-306.1430231385
 10
454.6624826486
 20
-304.1508771349
 10
452.9315570198
 20
-302.222427416
 10
450.9767012336
 20
-300.3666638537
 10
448.8070255948
 20
-298.5922398694
 10
446.4326530848
 20
-296.9074263392
 10
443.8646497209
 20
-295.3200805144
 10
441.1149881716
 20
-293.8376037279
 10
438.1964893106
 20
-292.4669076539
 10
435.1227637712
 20
-291.2143805684
 10
431.908138683
 20
-290.0858663442
 10
428.5676038362
 20
-289.0866242481
 10
425.1167318327
 20
-288.2213132594
 10
421.5716168418
 20
-287.4939688789
 10
417.9487843792
 20
-286.9079814596
 10
414.2651261118
 20
-286.4660829004
 10
410.5378195143
 20
-286.1703337211
 10
406.7842396252
 20
-286.0221146978
 10
403.0218905574
 20
-286.0221146978
 10
399.2683106683
 20
-286.1703337211
 10
395.5410040708
 20
-286.4660829004
 10
391.8573458034
 20
-286.9079814596
 10
388.2345133408
 20
-287.4939688789
 10
384.6893983499
 20
-288.2213132594
 10
381.2385263464
 20
-289.0866242481
 10
377.8979914996
 20
-290.0858663442
 10
374.6833664114
 20
-291.2143805684
 10
371.609640872
 20
-292.4669076539
 10
368.691142011
 20
-293.8376037279
 10
365.9414804617
 20
-295.3200805144
  0
LWPOLYLINE
  5
D7
330
1F
100
AcDbEntity
  8
0
  6
Continuous
 62
     7
370
    25
100
AcDbPolyline
 90
       99
 70
   128
 43
0.0
 10
431.4195704395
 20
-56.325716865
 10
433.5125644973
 20
-57.534346276
 10
435.7785634657
 20
-58.8428538364
 10
438.2082528912
 20
-60.2458608882
 10
440.7916518732
 20
-61.7375918882
 10
443.5181420401
 20
-63.3119154741
 10
446.3765149643
 20
-64.9623718449
 10
449.3550380169
 20
-66.6821803658
 10
452.4414543675
 20
-68.4642699882
 10
455.623096254
 20
-70.3013081501
 10
458.8868849824
 20
-72.1857616115
 10
462.2194099524
 20
-74.1098812473
 10
465.6069655357
 20
-76.0657537567
 10
469.0356459063
 20
-78.0453503363
 10
472.4913555778
 20
-80.0405449265
 10
475.9598989646
 20
-82.0431050875
 10
479.4270277979
 20
-84.0448410476
 10
482.8784727351
 20
-86.037502277
 10
486.3000684839
 20
-88.012910571
 10
489.6777630217
 20
-89.9629532014
 10
492.9976465713
 20
-91.8796118067
 10
496.2461129447
 20
-93.7549947192
 10
499.4097917126
 20
-95.581419461
 10
502.4756772797
 20
-97.3513777651
 10
505.4311901286
 20
-99.0575831023
 10
508.2641761621
 20
-100.6930311279
 10
510.9629936302
 20
-102.2510012029
 10
513.5165631802
 20
-103.7250852864
 10
515.9143704904
 20
-105.1092381185
 10
518.146570979
 20
-106.3977768395
 10
520.2040089017
 20
-107.585379844
 10
522.0781989126
 20
-108.6671856289
 10
523.761468968
 20
-109.6387536355
 10
525.2468898628
 20
-110.4960843872
 10
526.5283463525
 20
-111.2356483838
 10
527.6005885204
 20
-111.8544279267
 10
528.4592093866
 20
-112.3498433418
 10
529.1006765184
 20
-112.7198929018
 10
529.522358372
 20
-112.9630463571
 10
529.7225084872
 20
-113.0782966387
 10
529.7003181714
 20
-113.0651781084
 10
529.4558743526
 20
-112.9237482989
 10
528.9901859209
 20
-112.6545727009
 10
528.305157387
 20
-112.2587703834
 10
527.4036099555
 20
-111.7379653243
 10
526.2892472809
 20
-111.0943031299
 10
524.9666449303
 20
-110.3304145327
 10
523.4412424814
 20
-109.4494412407
 10
521.7193066437
 20
-108.4550146402
 10
519.8079180878
 20
-107.3512238539
 10
517.7149187616
 20
-106.1425853168
 10
515.4489197932
 20
-104.8340777564
 10
513.0192303677
 20
-103.4310707046
 10
510.4358366541
 20
-101.9393488306
 10
507.7093464872
 20
-100.3650009099
 10
504.8509682946
 20
-98.7145475805
 10
501.8724505103
 20
-96.9947481856
 10
498.7860288914
 20
-95.2126737721
 10
495.6043870049
 20
-93.3756112753
 10
492.3405982765
 20
-91.4911578139
 10
489.0080785748
 20
-89.5670473041
 10
485.6205177232
 20
-87.6111778361
 10
482.1918373526
 20
-85.6315812565
 10
478.7361276811
 20
-83.6363988337
 10
475.2675842943
 20
-81.6338265053
 10
471.8004633636
 20
-79.6320981505
 10
468.349013158
 20
-77.6394156277
 10
464.927414775
 20
-75.6640210218
 10
461.5497281397
 20
-73.7139738294
 10
458.2298340534
 20
-71.7973213067
 10
454.9813755826
 20
-69.9219338323
 10
451.8176994488
 20
-68.0955197372
 10
448.7518033451
 20
-66.3255675157
 10
445.7962931303
 20
-64.6193484905
 10
442.9633070968
 20
-62.9839004649
 10
440.2644869945
 20
-61.425944078
 10
437.7109279813
 20
-59.9518539117
 10
435.3131180369
 20
-58.567690433
 10
433.0809096457
 20
-57.279156274
 10
431.0234822597
 20
-56.0915471867
 10
429.1492843463
 20
-55.0097459639
 10
427.466016925
 20
-54.0381642692
 10
425.9806012987
 20
-53.180854811
 10
424.6991369064
 20
-52.441283209
 10
423.6268947385
 20
-51.8225158335
 10
422.7682738723
 20
-51.327088251
 10
422.1268067405
 20
-50.957038691
 10
421.7051301553
 20
-50.7138821944
 10
421.5049747717
 20
-50.5986227867
 10
421.5271650875
 20
-50.611741317
 10
421.7716089063
 20
-50.7531954613
 10
422.2373026064
 20
-51.0223558506
 10
422.9223258719
 20
-51.418149042
 10
423.8238785717
 20
-51.9389510597
 10
424.9382412464
 20
-52.5826375889
 10
426.2608383286
 20
-53.3465170601
 10
427.7862407775
 20
-54.2274903521
 10
429.5081766152
 20
-55.2219169526
 10
431.4195704395
 20
-56.325716865
  0
LWPOLYLINE
  5
D8
330
1F
100
AcDbEntity
  8
0
  6
Continuous
 62
     7
370
    25
100
AcDbPolyline
 90
       93
 70
   128
 43
0.0
 10
436.652159634
 20
-59.3464263094
 10
434.8629073767
 20
-58.3131540559
 10
433.263661015
 20
-57.3895776011
 10
431.8618621019
 20
-56.5799944973
 10
430.6640592039
 20
-55.8881746076
 10
429.6758315102
 20
-55.3173342443
 10
428.9017888322
 20
-54.8701787498
 10
428.3455347256
 20
-54.5487291061
 10
428.0096717582
 20
-54.3545318174
 10
427.8957593633
 20
-54.2884763918
 10
428.0043270109
 20
-54.3508698618
 10
428.3348794754
 20
-54.5414276529
 10
428.8858625919
 20
-54.8592477199
 10
429.6547080366
 20
-55.3028668158
 10
430.63784123
 20
-55.8701981287
 10
431.830673434
 20
-56.5586118811
 10
433.2276412646
 20
-57.3648912187
 10
434.8222317166
 20
-58.2852770705
 10
436.6070177251
 20
-59.3154825911
 10
438.573662775
 20
-60.4506927726
 10
440.713008488
 20
-61.6856363046
 10
443.0150779148
 20
-63.0145448804
 10
445.4691369444
 20
-64.4312038585
 10
448.0637428722
 20
-65.9290198415
 10
450.7868018576
 20
-67.5010264699
 10
453.6256141989
 20
-69.1398770959
 10
456.5669459505
 20
-70.8379195898
 10
459.5970811118
 20
-72.5872538444
 10
462.7018965375
 20
-74.3797354779
 10
465.8669075409
 20
-76.2069869496
 10
469.077366018
 20
-78.0604968005
 10
472.3183006178
 20
-79.9316215458
 10
475.5746003781
 20
-81.8116370058
 10
478.8310818966
 20
-83.6917831702
 10
482.0725670396
 20
-85.5632786439
 10
485.283932991
 20
-87.4174164624
 10
488.4502097171
 20
-89.2455351942
 10
491.5566405524
 20
-91.0391208427
 10
494.5887375178
 20
-92.7898083626
 10
497.5323629799
 20
-94.4894348954
 10
500.3737981393
 20
-96.1300914809
 10
503.0997878124
 20
-97.7040819902
 10
505.6976247242
 20
-99.2041299764
 10
508.1551969242
 20
-100.6231992043
 10
510.4610457378
 20
-101.9546792067
 10
512.6044184505
 20
-103.1923731178
 10
514.5753288932
 20
-104.3305144095
 10
516.3645758822
 20
-105.3637775369
 10
517.9638275122
 20
-106.2873509503
 10
519.365621157
 20
-107.0969370955
 10
520.5634293233
 20
-107.7887539438
 10
521.551657017
 20
-108.3595821398
 10
522.325699695
 20
-108.806761969
 10
522.8819485333
 20
-109.1282024867
 10
523.2178115007
 20
-109.3223997754
 10
523.3317291639
 20
-109.3884521597
 10
523.223156248
 20
-109.326061731
 10
522.8926090518
 20
-109.1355008985
 10
522.3416312038
 20
-108.8176777902
 10
521.5727804907
 20
-108.3740617356
 10
520.5896420289
 20
-107.8067212967
 10
519.3968098249
 20
-107.1183075443
 10
517.9998419943
 20
-106.3120282067
 10
516.4052515423
 20
-105.3916423548
 10
514.6204760705
 20
-104.361442919
 10
512.653823118
 20
-103.2262251322
 10
510.5144800392
 20
-101.9912922469
 10
508.2124106125
 20
-100.6623958384
 10
505.758354217
 20
-99.2457353396
 10
503.1637430208
 20
-97.7479102306
 10
500.4406893038
 20
-96.1759127283
 10
497.6018743283
 20
-94.5370636229
 10
494.6605425768
 20
-92.8390089616
 10
491.6304047813
 20
-91.0896640603
 10
488.5255972582
 20
-89.2971900322
 10
485.360575718
 20
-87.4699324758
 10
482.1501172409
 20
-85.6164226249
 10
478.9091826411
 20
-83.7452978796
 10
475.6528828808
 20
-81.8652824196
 10
472.3964066306
 20
-79.9851453813
 10
469.154926756
 20
-78.1136468662
 10
465.9435555362
 20
-76.259512089
 10
462.7772735418
 20
-74.4313963986
 10
459.6708479749
 20
-72.6378077087
 10
456.6387457411
 20
-70.8871232302
 10
453.695120279
 20
-69.1874966974
 10
450.8536903879
 20
-67.546849238
 10
448.1277007148
 20
-65.9728343938
 10
445.529863803
 20
-64.472798575
 10
443.0722863347
 20
-63.0537323885
 10
440.7664427894
 20
-61.7222493447
 10
438.6230648084
 20
-60.484558475
 10
436.652159634
 20
-59.3464263094
  0
LWPOLYLINE
  5
D9
330
1F
100
AcDbEntity
  8
0
  6
Continuous
 62
     1
370
    25
100
AcDbPolyline
 90
       14
 70
   128
 43
0.0
 10
449.0972389155
 20
-199.9390905579
 10
451.8379664853
 20
-201.6261175309
 10
454.3858300764
 20
-203.411048834
 10
456.7303585018
 20
-205.2865500444
 10
458.861916926
 20
-207.2449149331
 10
460.7717460485
 20
-209.2780972093
 10
462.4520012872
 20
-211.3777392234
 10
463.895771876
 20
-213.5352164468
 10
465.0971322314
 20
-215.741661042
 10
466.0511406354
 20
-217.9880067233
 10
466.7538787482
 20
-220.2650237318
 10
467.2024581936
 20
-222.563353051
 10
467.395035047
 20
-224.8735512668
 10
467.4030640217
 20
-225.4518440524
  0
LWPOLYLINE
  5
DA
330
1F
100
AcDbEntity
  8
0
  6
Continuous
 62
     1
370
    25
100
AcDbPolyline
 90
       38
 70
   128
 43
0.0
 10
342.4030661609
 20
-225.4518440524
 10
342.4753084935
 20
-223.7175602809
 10
342.796051279
 20
-221.4121111445
 10
343.3720064031
 20
-219.1232632564
 10
344.2008057399
 20
-216.8604189725
 10
345.279043297
 20
-214.6328802839
 10
346.6022897041
 20
-212.4497978741
 10
348.1651067007
 20
-210.3201445073
 10
349.9610682094
 20
-208.2526694078
 10
351.9828031416
 20
-206.2558705078
 10
354.2219960558
 20
-204.3379514883
 10
356.669450378
 20
-202.5067944067
 10
359.3151048651
 20
-200.7699228204
 10
362.1480908985
 20
-199.1344747947
 10
365.1567667285
 20
-197.6071709689
 10
368.3287675234
 20
-196.1942856629
 10
371.6510606873
 20
-194.9016271085
 10
375.1099926171
 20
-193.734504375
 10
378.6913525807
 20
-192.6977178647
 10
382.3804201327
 20
-191.7955228163
 10
386.1620395299
 20
-191.0316289254
 10
390.0206678048
 20
-190.409175633
 10
393.940453791
 20
-189.9307199601
 10
397.9052842216
 20
-189.5982281442
 10
401.8988719738
 20
-189.4130672754
 10
405.9048061183
 20
-189.3759976929
 10
409.9066204085
 20
-189.487169944
 10
413.8878749391
 20
-189.7461293458
 10
417.8322114646
 20
-190.1518114231
 10
421.7234179363
 20
-190.702548752
 10
425.5455062106
 20
-191.3960793229
 10
429.2827713181
 20
-192.2295503429
 10
432.9198520496
 20
-193.1995410454
 10
436.4418086644
 20
-194.30206193
 10
439.83416372
 20
-195.5325844159
 10
443.0829791219
 20
-196.8860518665
 10
446.1749058437
 20
-198.3569022097
 10
449.0972389155
 20
-199.9390905579
  0
LWPOLYLINE
  5
DB
330
1F
100
AcDbEntity
  8
0
  6
Continuous
 62
     1
370
    25
100
AcDbPolyline
 90
       16
 70
   128
 43
0.0
 10
449.0972389155
 20
-199.9390905579
 10
451.8645637809
 20
-201.5366211489
 10
454.4921033549
 20
-203.0534283175
 10
456.9690598125
 20
-204.4832909277
 10
459.2852583117
 20
-205.8203171644
 10
461.4311782745
 20
-207.0590234254
 10
463.3980031071
 20
-208.1943143557
 10
465.1776498342
 20
-209.2215334118
 10
466.7628046605
 20
-210.1364529708
 10
468.1469558979
 20
-210.9353115887
 10
469.3244176731
 20
-211.6148276814
 10
470.2903444156
 20
-212.1722109274
 10
471.0407716875
 20
-212.6051675855
 10
471.5726175005
 20
-212.9119316673
 10
471.8836928527
 20
-213.0912253895
 10
471.9738265224
 20
-213.1429850027
  0
LWPOLYLINE
  5
DC
330
1F
100
AcDbEntity
  8
0
  6
Continuous
 62
     1
370
    25
100
AcDbPolyline
 90
       36
 70
   128
 43
0.0
 10
363.7206523782
 20
-150.6429916699
 10
363.7217584037
 20
-150.6436522958
 10
363.8551429718
 20
-150.7209682564
 10
364.2103936541
 20
-150.9263805231
 10
364.786049264
 20
-151.2590402798
 10
365.5797455854
 20
-151.7175798284
 10
366.5882172666
 20
-152.3001145433
 10
367.8073267136
 20
-153.0042474845
 10
369.2320587807
 20
-153.8271028883
 10
370.8565629584
 20
-154.7652866021
 10
372.6741602884
 20
-155.8149277248
 10
374.677382876
 20
-156.971747051
 10
376.8580015489
 20
-158.2309681017
 10
379.2070521994
 20
-159.5874114237
 10
381.7148845162
 20
-161.0355272926
 10
384.3711909607
 20
-162.5693485676
 10
387.1650607675
 20
-164.1825720618
 10
390.0850076032
 20
-165.8685699527
 10
393.1190380553
 20
-167.6204049916
 10
396.2546792908
 20
-169.4309027495
 10
399.4790501792
 20
-171.2926075112
 10
402.7788981707
 20
-173.1978765734
 10
406.1406677852
 20
-175.1388711189
 10
409.5505427589
 20
-177.1076140117
 10
412.9945066305
 20
-179.0960278204
 10
416.458413864
 20
-181.0959332954
 10
419.9280267271
 20
-183.0991162885
 10
423.3890903654
 20
-185.0973406808
 10
426.8273841688
 20
-187.082396288
 10
430.228773138
 20
-189.0461254752
 10
433.5792842756
 20
-190.9804672616
 10
436.86515005
 20
-192.8774641614
 10
440.0728650307
 20
-194.7293252992
 10
443.1892524004
 20
-196.52843135
 10
446.2015031393
 20
-198.2674058277
 10
449.0972389155
 20
-199.9390905579
  0
ENDSEC
  0
SECTION
  2
OBJECTS
  0
DICTIONARY
  5
C
330
0
100
AcDbDictionary
281
     1
  3
ACAD_GROUP
350
D
  3
ACAD_LAYOUT
350
1A
  3
ACAD_MLINESTYLE
350
17
  3
ACAD_PLOTSETTINGS
350
19
  3
ACAD_PLOTSTYLENAME
350
E
  3
ACAD_SCALELIST
350
47
  0
DICTIONARY
  5
D
102
{ACAD_REACTORS
330
C
102
}
330
C
100
AcDbDictionary
281
     1
  0
DICTIONARY
  5
1A
102
{ACAD_REACTORS
330
C
102
}
330
C
100
AcDbDictionary
281
     1
  3
Layout1
350
1E
  3
Layout2
350
26
  3
Model
350
22
  0
DICTIONARY
  5
17
102
{ACAD_REACTORS
330
C
102
}
330
C
100
AcDbDictionary
281
     1
  3
Standard
350
18
  0
DICTIONARY
  5
19
102
{ACAD_REACTORS
330
C
102
}
330
C
100
AcDbDictionary
281
     1
  0
ACDBDICTIONARYWDFLT
  5
E
102
{ACAD_REACTORS
330
C
102
}
330
C
100
AcDbDictionary
281
     1
  3
Normal
350
F
100
AcDbDictionaryWithDefault
340
F
  0
DICTIONARY
  5
47
102
{ACAD_REACTORS
330
C
102
}
330
C
100
AcDbDictionary
281
     1
  3
A0
350
48
  3
A1
350
49
  3
A2
350
4A
  3
A3
350
4B
  3
A4
350
4C
  3
A5
350
4D
  3
A6
350
4E
  3
A7
350
4F
  3
A8
350
50
  3
A9
350
51
  3
B0
350
52
  3
B1
350
53
  3
B2
350
54
  3
B3
350
55
  3
B4
350
56
  3
B5
350
57
  3
B6
350
58
  3
B7
350
59
  3
B8
350
5A
  3
B9
350
5B
  3
C0
350
5C
  3
C1
350
5D
  3
C2
350
5E
  3
C3
350
5F
  3
C4
350
60
  3
C5
350
61
  3
C6
350
62
  3
C7
350
63
  3
C8
350
64
  3
C9
350
65
  3
D0
350
66
  3
D1
350
67
  3
D2
350
68
  0
LAYOUT
  5
1E
102
{ACAD_REACTORS
330
1A
102
}
330
1A
100
AcDbPlotSettings
  1

  2
none_device
  4

  6

 40
0.0
 41
0.0
 42
0.0
 43
0.0
 44
0.0
 45
0.0
 46
0.0
 47
0.0
 48
0.0
 49
0.0
140
0.0
141
0.0
142
1.0
143
1.0
 70
   688
 72
     1
 73
     0
 74
     5
  7

 75
    16
147
1.0
148
0.0
149
0.0
100
AcDbLayout
  1
Layout1
 70
     1
 71
     1
 10
0.0
 20
0.0
 11
420.0
 21
297.0
 12
0.0
 22
0.0
 32
0.0
 14
1.0000000000E+20
 24
1.0000000000E+20
 34
1.0000000000E+20
 15
-1.0000000000E+20
 25
-1.0000000000E+20
 35
-1.0000000000E+20
146
0.0
 13
0.0
 23
0.0
 33
0.0
 16
1.0
 26
0.0
 36
0.0
 17
0.0
 27
1.0
 37
0.0
 76
     0
330
1B
  0
LAYOUT
  5
26
102
{ACAD_REACTORS
330
1A
102
}
330
1A
100
AcDbPlotSettings
  1

  2
none_device
  4

  6

 40
0.0
 41
0.0
 42
0.0
 43
0.0
 44
0.0
 45
0.0
 46
0.0
 47
0.0
 48
0.0
 49
0.0
140
0.0
141
0.0
142
1.0
143
1.0
 70
   688
 72
     1
 73
     0
 74
     5
  7

 75
    16
147
1.0
148
0.0
149
0.0
100
AcDbLayout
  1
Layout2
 70
     1
 71
     2
 10
0.0
 20
0.0
 11
0.0
 21
0.0
 12
0.0
 22
0.0
 32
0.0
 14
0.0
 24
0.0
 34
0.0
 15
0.0
 25
0.0
 35
0.0
146
0.0
 13
0.0
 23
0.0
 33
0.0
 16
1.0
 26
0.0
 36
0.0
 17
0.0
 27
1.0
 37
0.0
 76
     0
330
23
  0
LAYOUT
  5
22
102
{ACAD_REACTORS
330
1A
102
}
330
1A
100
AcDbPlotSettings
  1

  2
none_device
  4
Letter_(8.50_x_11.00_Inches)
  6

 40
6.35
 41
6.35
 42
6.35000508
 43
6.35000508
 44
215.9
 45
279.4
 46
0.0
 47
0.0
 48
0.0
 49
0.0
140
0.0
141
0.0
142
1.0
143
1.0
 70
  1712
 72
     1
 73
     0
 74
     0
  7

 75
     0
147
1.0
148
0.0
149
0.0
100
AcDbLayout
  1
Model
 70
     1
 71
     0
 10
0.0
 20
0.0
 11
279.4
 21
215.9
 12
0.0
 22
0.0
 32
0.0
 14
0.0
 24
0.0
 34
0.0
 15
279.4
 25
215.9
 35
0.0
146
0.0
 13
0.0
 23
0.0
 33
0.0
 16
1.0
 26
0.0
 36
0.0
 17
0.0
 27
1.0
 37
0.0
 76
     0
330
1F
331
29
  0
MLINESTYLE
  5
18
102
{ACAD_REACTORS
330
17
102
}
330
17
100
AcDbMlineStyle
  2
Standard
 70
     0
  3

 62
   256
 51
90.0
 52
90.0
 71
     2
 49
0.5
 62
   256
  6
BYLAYER
 49
-0.5
 62
   256
  6
BYLAYER
  0
ACDBPLACEHOLDER
  5
F
102
{ACAD_REACTORS
330
E
102
}
330
E
  0
SCALE
  5
48
102
{ACAD_REACTORS
330
47
102
}
330
47
100
AcDbScale
 70
     0
300
1:1
140
1.0
141
1.0
290
     1
  0
SCALE
  5
49
102
{ACAD_REACTORS
330
47
102
}
330
47
100
AcDbScale
 70
     0
300
1:2
140
1.0
141
2.0
290
     0
  0
SCALE
  5
4A
102
{ACAD_REACTORS
330
47
102
}
330
47
100
AcDbScale
 70
     0
300
1:4
140
1.0
141
4.0
290
     0
  0
SCALE
  5
4B
102
{ACAD_REACTORS
330
47
102
}
330
47
100
AcDbScale
 70
     0
300
1:5
140
1.0
141
5.0
290
     0
  0
SCALE
  5
4C
102
{ACAD_REACTORS
330
47
102
}
330
47
100
AcDbScale
 70
     0
300
1:8
140
1.0
141
8.0
290
     0
  0
SCALE
  5
4D
102
{ACAD_REACTORS
330
47
102
}
330
47
100
AcDbScale
 70
     0
300
1:10
140
1.0
141
10.0
290
     0
  0
SCALE
  5
4E
102
{ACAD_REACTORS
330
47
102
}
330
47
100
AcDbScale
 70
     0
300
1:16
140
1.0
141
16.0
290
     0
  0
SCALE
  5
4F
102
{ACAD_REACTORS
330
47
102
}
330
47
100
AcDbScale
 70
     0
300
1:20
140
1.0
141
20.0
290
     0
  0
SCALE
  5
50
102
{ACAD_REACTORS
330
47
102
}
330
47
100
AcDbScale
 70
     0
300
1:30
140
1.0
141
30.0
290
     0
  0
SCALE
  5
51
102
{ACAD_REACTORS
330
47
102
}
330
47
100
AcDbScale
 70
     0
300
1:40
140
1.0
141
40.0
290
     0
  0
SCALE
  5
52
102
{ACAD_REACTORS
330
47
102
}
330
47
100
AcDbScale
 70
     0
300
1:50
140
1.0
141
50.0
290
     0
  0
SCALE
  5
53
102
{ACAD_REACTORS
330
47
102
}
330
47
100
AcDbScale
 70
     0
300
1:100
140
1.0
141
100.0
290
     0
  0
SCALE
  5
54
102
{ACAD_REACTORS
330
47
102
}
330
47
100
AcDbScale
 70
     0
300
2:1
140
2.0
141
1.0
290
     0
  0
SCALE
  5
55
102
{ACAD_REACTORS
330
47
102
}
330
47
100
AcDbScale
 70
     0
300
4:1
140
4.0
141
1.0
290
     0
  0
SCALE
  5
56
102
{ACAD_REACTORS
330
47
102
}
330
47
100
AcDbScale
 70
     0
300
8:1
140
8.0
141
1.0
290
     0
  0
SCALE
  5
57
102
{ACAD_REACTORS
330
47
102
}
330
47
100
AcDbScale
 70
     0
300
10:1
140
10.0
141
1.0
290
     0
  0
SCALE
  5
58
102
{ACAD_REACTORS
330
47
102
}
330
47
100
AcDbScale
 70
     0
300
100:1
140
100.0
141
1.0
290
     0
  0
SCALE
  5
59
102
{ACAD_REACTORS
330
47
102
}
330
47
100
AcDbScale
 70
     0
300
1/128" = 1'-0"
140
0.0078125
141
12.0
290
     0
  0
SCALE
  5
5A
102
{ACAD_REACTORS
330
47
102
}
330
47
100
AcDbScale
 70
     0
300
1/64" = 1'-0"
140
0.015625
141
12.0
290
     0
  0
SCALE
  5
5B
102
{ACAD_REACTORS
330
47
102
}
330
47
100
AcDbScale
 70
     0
300
1/32" = 1'-0"
140
0.03125
141
12.0
290
     0
  0
SCALE
  5
5C
102
{ACAD_REACTORS
330
47
102
}
330
47
100
AcDbScale
 70
     0
300
1/16" = 1'-0"
140
0.0625
141
12.0
290
     0
  0
SCALE
  5
5D
102
{ACAD_REACTORS
330
47
102
}
330
47
100
AcDbScale
 70
     0
300
3/32" = 1'-0"
140
0.09375
141
12.0
290
     0
  0
SCALE
  5
5E
102
{ACAD_REACTORS
330
47
102
}
330
47
100
AcDbScale
 70
     0
300
1/8" = 1'-0"
140
0.125
141
12.0
290
     0
  0
SCALE
  5
5F
102
{ACAD_REACTORS
330
47
102
}
330
47
100
AcDbScale
 70
     0
300
3/16" = 1'-0"
140
0.1875
141
12.0
290
     0
  0
SCALE
  5
60
102
{ACAD_REACTORS
330
47
102
}
330
47
100
AcDbScale
 70
     0
300
1/4" = 1'-0"
140
0.25
141
12.0
290
     0
  0
SCALE
  5
61
102
{ACAD_REACTORS
330
47
102
}
330
47
100
AcDbScale
 70
     0
300
3/8" = 1'-0"
140
0.375
141
12.0
290
     0
  0
SCALE
  5
62
102
{ACAD_REACTORS
330
47
102
}
330
47
100
AcDbScale
 70
     0
300
1/2" = 1'-0"
140
0.5
141
12.0
290
     0
  0
SCALE
  5
63
102
{ACAD_REACTORS
330
47
102
}
330
47
100
AcDbScale
 70
     0
300
3/4" = 1'-0"
140
0.75
141
12.0
290
     0
  0
SCALE
  5
64
102
{ACAD_REACTORS
330
47
102
}
330
47
100
AcDbScale
 70
     0
300
1" = 1'-0"
140
1.0
141
12.0
290
     0
  0
SCALE
  5
65
102
{ACAD_REACTORS
330
47
102
}
330
47
100
AcDbScale
 70
     0
300
1-1/2" = 1'-0"
140
1.5
141
12.0
290
     0
  0
SCALE
  5
66
102
{ACAD_REACTORS
330
47
102
}
330
47
100
AcDbScale
 70
     0
300
3" = 1'-0"
140
3.0
141
12.0
290
     0
  0
SCALE
  5
67
102
{ACAD_REACTORS
330
47
102
}
330
47
100
AcDbScale
 70
     0
300
6" = 1'-0"
140
6.0
141
12.0
290
     0
  0
SCALE
  5
68
102
{ACAD_REACTORS
330
47
102
}
330
47
100
AcDbScale
 70
     0
300
1'-0" = 1'-0"
140
12.0
141
12.0
290
     0
  0
ENDSEC
  0
EOF
